CMX : Tabulatuurit : Anathema

Intro:
E D F | x6

E                D      F
piirtäkää merkki niiden otsaan
E                D       F
joilla on valta ostaa ja myydä

E D F | E D F | C E B | Bb

E
pojat kostavat isiensä virheet
E
toistamalla ne
E
nyt ei säästy yksikään

E | E |

e-----------------------------------------------------------------
H-----------------------------------------------------------------
G-----------------------------------------------------------------
D-----------------------------------------------------------------
A-4--3--4--3--4-3--------4--3--4--3--4-3------4--3--4--3--4-3-----
E------------------6--4------------------6--4-----------------6--4

e-----------------------------------------------------------------
H-----------------------------------------------------------------
G-----------------------------------------------------------------
D-----------------------------------------------------------------
A-----------------------------------------------------------------
E-6-7-6-7-6-7-6-7-6-7-6-7-6-7-6-7---------------------------------

e-----------------------------------------------------------------
H-----------------------------------------------------------------
G-----------------------------------------------------------------
D-----------------------------------------------------------------
A-6--5--6--5--6-5--------6--5--6--5--6-5------6--5--6--5--6-5-----
E------------------8--6------------------8--6-----------------8--6

e-----------------------------------------------------------------
H-----------------------------------------------------------------
G-----------------------------------------------------------------
D-----------------------------------------------------------------
A-----------------------------------------------------------------
E-8-9-8-9-8-9-8-9-8-9-8-9-8-9-8-9---------------------------------

E
mystinen yhteys kaukana täältä
E
nyt ei säästy yksikään
E
voima siirtää vuoria on maalla
E
niiden alla

E | E | E D F | E D F

E             D      F
lyökää kirves niiden otsaan
E               D        F
joilla on valta ostaa ja myydä

E D F | E D F | E

Hauskoja soittohetkiä!

(Päivitetty 15.08.1999)


Muokkaa tabulatuuria »