CMX : Tabulatuurit : Meidän syntimme

Alkuriffi: 

E|-------------------------------------------------------------------|
B|-------------------------------------------------------------------|
G|-------------------------------------------------------------------|
D|-9---9-99-99-9-999---9-9912-11--9-5---5-55-55-5-554---4-44-44-4-44-|
A|-7---7-77-77-7-777---7-7710--9--7-3---3-33-33-3-332---2-22-22-2-22-|
E|-------------------------------------------------------------------|

E|-------------------------------------------------------------------|---|
B|-------------------------------------------------------------------|---|
G|-------------------------------------------------------------------|---|
D|-9---9-99-99-9-999---9-9912-11--9-4---4-44-44-4-442---2-22-22------|-2-|
A|-7---7-77-77-7-777---7-7710--9--7-2---2-22-22-2-220---0-00-00-5-5--|-2-|
E|--------------------------------------------------------------3-3--|-0-|



Em  /  C   Hm
Em  /  Hm  A G
Em  /  C   Hm
Em  /  Hm  A G

Em
Laulu on paikka jossa suru etsii avaimia
Hm                        A
pölyttyneen pitkän mustan takin taskuista.
Laulu on paikka jossa haudattuna kukkapenkkiin
löytyy nippu kultaisia lapsen hiuksia.
Laulu on matka uuteen valoon missä tuuli leikkii
kauan sitten pudonneilla haavanlehdillä.
Laulu on tukahtunut itku onnen tiellä, joka
väittää ettei kaikki ole menetettyä.

G  A  Hm  F

hb=venytä yhden nauhan verran
fb=venytä kahden nauhan verran
+r=vapauta
E|------------------------------------------------------------------------------------------|
B|------------------------------------------------11-8------8-------------------------------|
G|-------------------------10fb-10fb~-10fb~-10fb~------10hb---10-8-10fb+r-10-8---8----------|
D|----------------------10-----------------------------------------------------10--10-8-10\-|
A|-5---5-7-7---7-9-9---9-8------------------------------------------------------------------|
E|-3---3-5-5---5-7-7---7--------------------------------------------------------------------|



Em                 Dm        Am   Em
Anna meille meidän syntimme anteeksi.
                   D            A        H
Anna meille meidän jokapäiväinen kykymme suruun.
Em                 Dm        Am   Em
Anna meille meidän syntimme anteeksi.
                   D            A
Anna meille meidän jokapäiväinen kykymme
C#m           G#m        A          H
suruun, sillä emme tiedä erheidemme kantomatkaa.

Em  /  C   Hm
Em  /  Hm  A G

Laulu on kaikki nämä sanat välillämme,
kulkematon pitkä tie, päivä kohoamaton.
Laulu välittömän tyydytyksen ansa, paho-
laisen suurin työ, ettei häntä oo.
Ja meri kiehuu horisontin matala, kuin esi-
rippu joka turhaan kaipaa repeämistä.
Kun laulu kulkee kaikki valheet kantaen ja tietää
etten niitä nää ne hetken lämmittää.


E|----------12-----------------7---|
B|-12------------12-------12-------|
G|---------------------------------| huiluäänillä
D|------7-------------7------------|
A|---------------------------------|
E|---------------------------------|




C         F             Em                     Am
Turhuutta vain on ihoon raapustetut pyhät luvutkin.
C         F             Em                   A
Turhuutta vain jokainen tyhjä aika katkeroitunut.
E|-----------------------------------------------------------------|
B|-----------------------------------------------------------------|
G|-----------------------------------------------------------------|
D|---------------------------------------------------h-------------|
A|-3----/5-3----3/5-\2----(2)/7----7\3-3----(3)/7----8108-7----\---|
E|-----------------------------------------------------------------|
 |							           |
E|-----------------------------------------------------------------|
B|---------------------------------------------------h-------------|
G|-5----/7-5----5/7-\4----(4)/9----9\5-5----(5)/9---101210-9-------|
D|-----------------------------------------------------------------|
A|-----------------------------------------------------------------|
E|-----------------------------------------------------------------|


E|------------------------|
B|-pp----pp--------pp-----|
G|-420---420---4-4-420----|
D|----2-----2---------2-0-|
A|------------------------|
E|------------------------|



Anna meille meidän syntimme anteeksi.
                                         Hsus4  H
Anna meille meidän jokapäiväinen kykymme suruun.
Anna meille meidän syntimme anteeksi.
                                         Hsus4  H
Anna meille meidän jokapäiväinen kykymme suruun.
Anna meille meidän syntimme anteeksi.
Anna meille meidän jokapäiväinen kykymme
suruun, sillä emme tiedä erheidemme kantomatkaa.

Em

Kaikki kunnia tabuista Asserille. Lisäsin vain tuon alkuriffin.


Pari kitarakohtaa lisätty   - Tuomas
Kertosäkeen ekan kierron D on Dm - Janne/CMX

(Päivitetty 19.12.2000)


Muokkaa tabulatuuria »