CMX : Tabulatuurit : Musiikin ystävälliset kasvot

riffi 1	  x4 (kitara 2 tulee mukaan toisen kerran jälkeen)
E|---------------------------------------------------------------|
B|-------------h-------------------------------------------------|
G|-----0---0---020-----------------------------------------------| kitara
1
D|-2-2---2---2---------0---0---0-2-2-2-2-2-2-2-2---------3---5-5\|
A|-----------------2-2---2---2-----0-0-0-0-0-0-0-5---5-5-1---3-3\|
E|-----------------------------------------------3---3-3---------|
 |                                 . . . .   . .     . .         |
E|---------------------------------------------------------------|
B|---------------------------------------------------------------|
G|-9-9-9-9-9-9-9-9-4-4-4-4-4-4-4-4-2-2-2-2-2-2-2---------3---5-5-| kitara
2
D|-9-9-9-9-9-9-9-9-4-4-4-4-4-4-4-4-2-2-2-2-2-2-2-5---5-5-3---5-5-|
A|-7-7-7-7-7-7-7-7-2-2-2-2-2-2-2-2-0-0-0-0-0-0-0-5---5-5-1---3-3-|
E|-----------------------------------------------3---3-3---------|


ja sitten päätös riffi 1:lle
E|---------------------------------7---|
B|---------------------------------8---|
G|-7-7-7-7-7-7-7-8-8-8-8-8-8-8-8-8-7---| molemmat kitarat
D|-7-7-7-7-7-7-7-8-8-8-8-8-8-8-8-8-9---|
A|-5-5-5-5-5-5-5-6-6-6-6-6-6-6-6-6-7---|
E|-------------------------------------| 
   . . . . . . . . . . . . . . . . (kevyt demppaus)



laulu,basso,rummut, ei kitaraa :(

filli 1
E|------------------------|
B|------------------------|
G|------------------------| molemmat kitarat
D|------------------------|
A|-x-x-x-x-x-x-x-x-jne...-|
E|-x-x-x-x-x-x-x-x--------|


riffi 2   x2
E|-----------------------------------------------------------------|
B|-----------------------------------------------------------------|
G|-7-7-7-7-7-7-7-7-----------------4-4-4-4-4-4-4-4-----------------|
molemmat kitarat
D|-7-7-7-7-7-7-7-7-5-5-5-5-5-5-5-5-4-4-4-4-4-4-4-4-5-5-5-5-5-5-5-5-|
A|-5-5-5-5-5-5-5-5-5-5-5-5-5-5-5-5-2-2-2-2-2-2-2-2-5-5-5-5-5-5-5-5-|
E|-----------------3-3-3-3-3-3-3-3-----------------3-3-3-3-3-3-3-3-|


riffi 3   x3 
E|----------------------------------|
B|----------------------------------|
G|----------------------------------| kitara 1 
D|-----------------------------hp---|
A|-----3---3-3-3-3-4-3-3-3-3-3-343--|
E|-1-1---1------------------------4-|
 |				    |
E|----------------------------------|
B|----------------------------------|
G|-----------5-5-------------5-5----| kitata 2
D|-3---3-----5-5---6---6-----5-5----|
A|-3---3-----3-3---6---6---xx3-3----|
E|-1---1---xx------4---4------------|

riffi 3.1   x1
E|---------------------------------|
B|---------------------------------|
G|---------------------------------| kitara 1
D|---------------------------------|
A|-----3---3-3-3-3-4-3-3-3-3-3-4-5-|
E|-1-1---1-------------------------|
 |				   |
E|---------------------------------|
B|---------------------------------|
G|-----------5-5-------------5-5---| kitara 2
D|-3---3-----5-5---6---6-----5-5---|
A|-3---3-----3-3---6---6---xx3-3---|
E|-1---1---xx------4---4-----------|


riffi 1   x2
filli 1   x1

riffi 3  x2 HUOM! SOITA MOLEMISSA KITAROISSA KORKEAMPI OKTAAVI!
E|-----------------------------------------------------|
B|-----------------------------------------------------|
G|-----------------------------------------------------| kitara 1 
D|---------------------------9---9-997---7-7712---12---| 
A|-7---7-779---9-9910---10-----------------------------|
E|-----------------------------------------------------|
 |    						       |
E|-----------------------------------------------------|
B|-----------------------------------------------------|
G|-9---9-997---7-77----------9---9-997---7-7712---12---| kitara 2
(kakkoskitarasta en 
D|-----------------9----9------------------------------|           ole
kovin varma)
A|-----------------------------------------------------|  
E|-----------------------------------------------------|  


filli 2 
E|-12-11-10-10-11-12-11-10-9-9-10-11-10-9-8-8-9-10-9-8-7-7-8-9-|
B|-------------------------------------------------------------|
G|-------------------------------------------------------------|
D|-------------------------------------------------------------|
A|-------------------------------------------------------------|
E|-------------------------------------------------------------|
 |							       |
E|-------------------------------------------------------------|
B|-10-11-12-12-11-10-9-10-11-11-10-9-8-9-10-10-9-8-7-8-9-9-8-7-|
G|-------------------------------------------------------------|
D|-------------------------------------------------------------|
A|-------------------------------------------------------------|
E|-------------------------------------------------------------|


riffi 2   x2
riffi 3   x8
riffi 1   x1

outro (ajoitukset eivät ole kohdallaan)
E|-------------------h---------------------------------------------p----|
B|-----3-----3------1-3---3----p------3-----1------3------5--------30---|
G|----------------------------2-0---------------------------------------|
kitara 1
D|-0-------0------0-----0---------0-------0------0------0------0--------|
A|----------------------------------------------------------------------|
E|----------------------------------------------------------------------|
   
E|----------------------------------------------------------------------|
B|-----3-----1------3-----3----p------3-----1------3------5------5--(5)/|
G|----------------------------2-0---------------------------------------|
kitara 1
D|-0-------0------0-----0---------0-------0------0------0------0--------|
A|----------------------------------------------------------------------|
E|----------------------------------------------------------------------|
 |									|
E|----------------------------------------------------------------------|
B|----------------------------------------------------------------------|
G|-----7-----7-----7-----7-----5------7-----7-----7-----7-----5---------|
kitara 2
D|-0-0---0-0---0-0---0-0---0-0----0-0---0-0---0-0---0-0---0-0-----------|
A|----------------------------------------------------------------------|
E|----------------------------------------------------------------------|

E|-----------------------------pp---------------------------------------|
B|/8---8-----7------10\8---7---875---8---7---10\8---8-7---5-------------|
G|----------------------------------------------------------------------|
kitara 1
D|-0-------0------0-(en enää huvita merkitä näitä
bassokieliä)----------|
A|----------------------------------------------------------------------|
E|----------------------------------------------------------------------|
 |							                |
E|----------------------------------------------------------------------|
B|----------------------------------------------------------------------|
G|-----7-----7-----7-----7-----5------7-----7-----7-----7-----5---------|
kitara 2
D|-0-0---0-0---0-0---0-0---0-0----0-0---0-0---0-0---0-0---0-0-----------|
A|----------------------------------------------------------------------|
E|----------------------------------------------------------------------|

E|------h----h----h----h--------------------------------------|
B|-----7-8--5-7--3-5--1-3--5\3---3\1-1----p-----p-------------|
G|---------------------------------------2-0---2-0-0----------| kitara 1
D|------------------------------------------------------------|
A|------------------------------------------------------------|
E|------------------------------------------------------------|
 |                                                            |
E|------------------------------------------------------------|
B|-----------------hp----------------------------hp-----------|
G|-----7-----5-----454---2----0------7-----5-----454---2----0-| kitara 2 
D|-0-------0-----0-----0---------0-------0-----0-----0--------| (jatka
tätä loppuun asti)
A|------------------------------------------------------------|
E|------------------------------------------------------------|
   
   *= 12, ei 1 ja 2
E|-------------------------------------------------------|
B|-121212---10---\9---\7-7---12---10---9---7---7-jne...--|
G|-------------------------------------------------------| kitara 1
D|-------------------------------------------------------|
A|-------------------------------------------------------|
E|-------------------------------------------------------|


Mielenkiinto loppui täysin outroa työstäessä joten suhtautukaa siihen
varauksella.


(Päivitetty 13.12.2000)


Muokkaa tabulatuuria »