CMX : Tabulatuurit : Kuolemattomuuden ääni

Intro:
e|--------------------------------------------------|
h|--------------------------------------------------|
g|--------------------------------------------------|
d|222----0110-0-------0110-0-------0110-0110-0---2--|
a|0000303----3-30-0303----3-30-0303----3----3-30-0--|
e|---------------3------------3-----------------3---|

H5/ F#5/ E5/ C5
paratiisi nurkasta nurkkaan...

H5/ C#5/ D5/C#5 x3 + E5...
Tuo viiltävä tuska...

B5/ C#5/B5 /C#5.............
Kuolemattomuuden ääni...

e|-----------|
h|-----------|
g|-----------|
d|7----8-----|
a|5----6-----|
e|5----6-----|
kerro minulle verestä...

Muistakaa,voin aina olla väärässä.Intro kylläkin on varmasti oikein. 

(Päivitetty 15.08.1999)


Muokkaa tabulatuuria »