CMX : Tabulatuurit : Tähdet sylissään

Intro/kertosäe

| D   | Em7 | Cadd9 | D   |

2.kitara (efektinä esim. overdrive ja phaser)
  D                     Em7
|---------------------------------------------|
|---------------------------------------------|
|-----2h4p2-----2h4p2-------2h4p2-----2h4p2---|
|-0-0---------0---------2-2---------2---------|
|---------------------------------------------|
|---------------------------------------------|
  Cadd9                 D
|---------------------------------------------|
|---------------------------------------------|
|-----2h4p2-----2h4p2-------2h4p2-----2h4p2---|
|-----------------------0-0---------0---------|
|-3-3---------3-------------------------------|
|---------------------------------------------|


Säkeistö (2. kitara dempaten)

| Hm  | Hm  | A   | A   | Hm  | Hm  | A   | F#m |


Väliosa

| G  Em | A   |


1. kertosäkeen jälkeen

| A  Cadd9 |


2. kertosäkeen jälkeen

| D  A | Cadd9 G |



Cadd9            [0 3 2 0 3 0]
Em7              [0 2 2 0 3 3]


hb=venytä yhden nauhan verran
fb=venytä kahden nauhan verran
xb+r=venytä ja vapauta takaisin


                                                                    hp 
E|------------------------------------------10-12-12fb~---\12-12---9129---|
B|--10----------------10-12fb---12fb+r---/12------------------------------|
G|------11---9-11---11----------------------------------------------------|
D|-9--9-------------------------------------------------------------------|
A|------------------------------------------------------------------------|
E|------------------------------------------------------------------------|

E|(9)/12-14-16-16hb+r-------------------------------------------------------|
B|--------------------14-14-\-----------------------------------------------|
G|--------------------------------------------------------------------------|
D|--------------------------------------------------------------------------|
A|------------------------------12-9-12-9--p-p------------------------------|
E|----------------------------------------12119--12-9--7/9--7\5-7---5/7-7---|
					 
					

(Päivitetty 06.12.2000)


Muokkaa tabulatuuria »