CMX : Tabulatuurit : Iliman pielet

riffi 1   x4
E|-----------------------------------------------------------------|
B|-----------------------------------------------------------------|
G|-4-4-4-4-4-4-4-4-4-7-7-7-7-7-7-7-3-3-3-3-3-3-3-3---5-5-5-5-5-5-5-| 
D|-2-2-2-2-2-2-2-2-2-5-5-5-5-5-5-5-1-1-1-1-1-1-1-1---3-3-3-3-3-3-3-|
A|-2-2-2-2-2-2-2-2-2-5-5-5-5-5-5-5-1-1-1-1-1-1-1-1---3-3-3-3-3-3-3-|
E|-----------------------------------------------------------------|

E|-----------------------------------------------------------------------------|
B|------------------12----------------16----------------------13---------------|
G|---9-----9---9---------------------------------------------------------------|kitara
2 soittaa
D|-----------------9---9-9-7-7-7-7-13----13-13-13-13-13-13-10----10-10-7-7-7-7-|tämän
riffin 
A|-7---7-7---7---7-------------------------------------------------------------|toisen
toisto-
E|-----------------------------------------------------------------------------|kerran
jälkeen
(paljon vibratoa, korkeat nuotit soitetaan venyttämällä
puolisävelaskelta 
 matalemmalta merkittyyn nuottiin)


riffi 2  x8
E|-------------------------|
B|-------------------------|
G|-------------------------| kitara 1
D|-------------------------|
A|-----2-------------------|
E|-0-------5-3-2---5---3-2-|

E|-----------------------------------------------------|
B|/5--(5)----------------------------------------------|
G|-----7---6---4-2-2/4-44444444-2/4-44444444-----------| kitara 2 soittaa
tätä välillä 
D|-------------------------------------------4-5-4-2---| riffi 2 päällä
A|-----------------------------------------------------|
E|-----------------------------------------------------|


filli 1
E|-----------------|
B|-----------------|
G|-----------------| kitara 1
D|-----------------|
A|-2-2-2-5-5-5-5-6-|
E|-0-0-0-3-3-3-5-6-|
 |                 |
E|-----------------|
B|-----------------|
G|-----------------| kitara 2
D|-----------------|
A|-------------5-6-|
E|-0-0-0-3-3-3-----|



riffi 1   x3.75  (älä soita F5-sointua)



riffi 3   x4   
E|---8---8--10------7---7-----*-----------------------------|
B|---8---8---8------8---8-----7---10---10-----8---7---7-----| *=kuuluvat
hyvin vaimeasti
G|--------------------------*-------------------------------|   
D|--------------------------9-----------------------9---9---|
A|------------------------------------9---9-----------------|
E|----------------------------------------------------------|
 |                                                          |
E|-8--------------------------------------------------------|
B|-8------------8-------------------------------------------|
(volume-nuppia vääntelemällä saa
G|--------------7-----------------11--------(11)------------|  tuon
kuulostamaan ihan hyvältä)
D|---------------------------------9---------(9)------------|
A|----------------------------------------------------------|
E|----------------------------------------------------------|


riffi 2   x8 (Vitos-sointuja ja säröä)
filli 1
riffi 1   x7.75

Toinen kitara riffi 1 aikana
E|------------------------------------------------------------------|
B|-----------------121212121010101016161616161616161313131310101010-| 
G|-9999999999999999-------------------------------------------------| 
D|-----------------999999997777777713131313131313131010101077777777-| 
A|-7777777777777777-------------------------------------------------| 
E|------------------------------------------------------------------|
 En ole varma soitetaanko matalempi oktaavi mutta merkitsinpä se
kuitenkin.
 Tilan puutteen takia en merkinnyt tarkkaa nuottien tarkkaa määrää,
kuunnelkaa itse

Kiireellä tehty joten varokaa mokia...

(Päivitetty 01.12.2000)


Muokkaa tabulatuuria »