CMX : Tabulatuurit : Loputtomasti samaa

Intro:

4x Em D | Em  

Am | C#m7 | Am | C#m7 E

Am
 Tyttö tyhjässä kirkossa katsoo palavaa ikkunaa
C#m7
 sydämessä mustaa jäätä, silmässä kuiva kyynel
Am
 eikä yksikään enkeli tule koskaan lohduttamaan
C#m7                    E
 eikä löydy pyhää sanaa kertomaan 

Em              D         G           Am
 alttarimaalaus alastonna pysytelköön raameissaan
Em              D          G      Am
kun kylmä viima kaikkialta hankaa seinää vihassaan

E             C                  
jos mikään ei muutu kaikki vain 
F                   D7
jatkuu loputtomasti samaa

Toinen kitara soittaa taustalla jotakin tähän tyyliin:

|-0---------------1---------------|
|-----0---1---1-----1-3-1-----1---|
|---1---1---0---0-----------2---2-|
|-------------------------0-------|
|---------------------------------|
|---------------------------------|

Call of Ozzy -kohdan näppäiltävät soinnut:
           
|---------0---------------0---------|
|-------0---0-----------0---0-------|
|-----5-------5-------5-------5-----|
|---7-----------7---7---------------|
|-0---------------0-------------7---|
|-----------------------------------|

|---------0-------|--------0---------|
|-------0---0-----|------7---7-------|
|-----5-------5---|----5-------5-----|
|---7-----------7-|--7-----------7---|
|-6---------------|6-----------------|
|-----------------|------------------|

|-------0-----0----------0-------0-|
|-----4---4------------------------|
|---6-------6---6------4---4---4---|
|--------------------4-------4-----|
|-4----------------2---------------|
|----------------------------------|

E             C/E                  
jos mikään ei muutu kaikki vain 
F                   D7/F#
jatkuu loputtomasti samaa

(Päivitetty 25.11.2000)


Muokkaa tabulatuuria »