CMX : Tabulatuurit : Ehdotus ensimmäisen mainoskatkon paikaksi

Alkukikkailu X4:

E|------------------------------------|
B|------------------------------------|
G|------------------------------------|
D|------------------------------------|
A|----3-5---3-2-----------------------|
D|-0------0-----0-7-0-5-7-3-2-0-------|

Kitarariffi (jumalattoman särkijän kanssa) X4 :

E|------------------------------------|
B|------------------------------------|
G|------------------------------------|
D|-12--10-12--10-9-0-7-0-5-7-3-2-0----|  
A|-12--10-12--10-9-0-7-0-5-7-3-2-0----|
D|-12--10-12--10-9-0-7-0-5-7-3-2-0----|

Riffin toistojen jälkeen :

E|-----------------|		
B|-----------------|
G|-----------------|
D|-3-2-0--3-2-0--|  
A|-3-2-0--3-2-0--|
D|-3-2-0--3-2-0--|


Kitarafilli X2 :
E|----------------------------------------|
B|-7-5-7-9--7-9/10\9--7-9-9109-12-10-9-7--|
G|-7-5-7-9--7-9/10\9--7-9-9109-12-10-9-7--|
D|----------------------------------------|
A|----------------------------------------|
D|----------------------------------------|

Fillin toistojen perään :

E|----------------------|
B|--10-9-7--10-9-7--|
G|--10-9-7--10-9-7--|
D|---------------------|
A|---------------------|
D|---------------------|

Toisella kerralla kitarariffi tulee taas (ei filliä). Riffin toistojen
perään tulee tällä kertaa tämä :

E|--------------------------|		
B|--------------------------|
G|--------------------------|
D|-3-2-0--3-2-0--0--2-3-----|  
A|-3-2-0--3-2-0--0--2-3-----|
D|-3-2-0--3-2-0--0--2-3-----|

3. kerralla taas riffi (X8) ja filli (X4), riffin toistojen perään
tulee:

E|--------------------------------|		
B|--------------------------------|
G|--------------------------------|
D|-3-2-0--3-2-0--3-2-3-2-3-2-3-2--|  
A|-3-2-0--3-2-0--3-2-3-2-3-2-3-2--|
D|-3-2-0--3-2-0--3-2-3-2-3-2-3-2--|

... ja fillin toistojen perään:

E|----------------------------------------|
B|--10-9-7--10-9-7--10-9-10-9-10-9-10-9---|
G|--10-9-7--10-9-7--10-9-10-9-10-9-10-9---|
D|----------------------------------------|
A|----------------------------------------|
D|----------------------------------------|

Tiukkaa tavaraa.

(Päivitetty 15.11.2000)


Muokkaa tabulatuuria »