CMX : Tabulatuurit : Kansantalouden saavutusten näyttely

Tässäpä on se pääriffi+muutama lisäys
Ei siis säkeistöjä, ne keksiköön Tuomas.

E:-----------------
H:-----------------
G:-6-6-6-9-6-6-9-6-
D:-6-6-6-9-6-6-9-6-
A:-4-4-4-7-4-4-7-4-
E:-----------------

Ja sitten tulee proge:

E:-------------------------------
H:-------------------------------
G:-6-6-6-9-6-6-9-6---------------
D:-6-6-6-9-6-6-9-6---------------
A:-4-4-4-7-4-4-7-4---------------
E:-----------------7-6-5-4-5-6-7-

Kertosäe
E|------------------------------------------------------------------|
B|------------------------------------------------------------------|
G|----------9------------------------------9------------------------|
D|-------11-----11----9---11---\--------11-----11------9------------|
A|-10/11-----------11-------------10/11-----------11-------11---\---|
E|------------------------------------------------------------------|

E|------------------------------------------------------------------|
B|------------------------------------------------------------------|
G|----------9---------------------11hb+r---9h11p9-------------------|
D|-------11-----11----9---11------------------------11---------\----|
A|-10/11-----------11-----------------------------------------------|
E|------------------------------------------------------------------|

E|------------------------------------------------------------------|
B|------------------------------------------------------------------|
G|----------9------------------------------9-----------9------------|
D|-------11-----11----9---11---\--------11-----11----------11----\--|
A|-10/11-----------11-------------10/11-----------11----------------|
E|------------------------------------------------------------------|

E|------------------------------------------------------------------|
B|------------------------------------------------------------------|
G|----------9---------------------11hb+r---9h11p9-------------------|
D|-------11-----11----9---11------------------------11---------\----|
A|-10/11-----------11-----------------------------------------------|
E|------------------------------------------------------------------|



Ennen sooloa
E|------------------------------------------------------------|
B|------------------------------------------------------------|
G|------------------------------------------------------------|
D|--------------------------phphphp---------------------------|
A|--------3---5-4------3---43434343-/5-4-----3---/5-4-----3---|
E|-9--\-2------------2---------------------2------------2-----|


Soolo (delay-efekti)
E|--------------------------------------------------------------------------------------|

B|-----9-7---7------------------------------------9-------------------------------------|
G|---------9---9-8-9~---8\6/8-----6-8-9-----6-8-9---6-6-6---8-6---6-8-9-----------------|

D|-6----------------------------9---------9---------------------9-------6---6/9---11-13-|
A|--------------------------------------------------------------------------------------|
E|--------------------------------------------------------------------------------------|

E|-9----------------------------------------------12---16-12-----------------------|
B|-9-------------------9-9-12fb+r-9~---/12---16--------------16-16---14-12---------|
G|-9----(p)----------9-----------------------------------------------------13-13---|
D|11---11-9-11---/11---------------------------------------------------------------|
A|---------------------------------------------------------------------------------|
E|---------------------------------------------------------------------------------|

E|---------------------------------------------------------------|
B|-----------------------------------------7---------------------|
G|-11-9-8-8---9-8-6-6---9-6-8-8------9-8-9---9-8-9-8-6-9-6---7---|
D|---------------------------------------------------------9-----|
A|---------------------------------------------------------------|
E|------------------------------------------

Lopussa tuleva toinen kitara:

E:-----------------------------
H:-----------------------------
G:-----------------------------
D:-------5-----5---------------
A:-7-7-7---7-7---5-4-3-2-3-4-5-
E:-----------------------------

(Päivitetty 14.11.2000)


Muokkaa tabulatuuria »