CMX : Tabulatuurit : Kansantalouden saavutusten näyttely(basso)

Kansantalouden saavutusten näyttely(basso)

Riffi 1
G----------------------
D-------2-------2------
A-4-4-4-----4-4-----4--
E----------------------

Riffi 2
G-----------------------------------
D-------2-------2-------------------
A-4-4-4-----4-4-----4-2-1-0---0-1-2-
E---------------------------4-------

Riffi 3
G-----------------------
D---------------------6-
A----------7-4---7------
E-4---7-----------------

Riffi 4
G---------------------
D---------------------
A----------7-4--------
E-4---7---------------

Riffi 5
G--------------------------
D--------------------------
A-4-----3---5-4------------
E-----2--------------------

Riffi 6
G-----------------------------------------------
D-----------------------------------------------
A-4----4--3----3-3-3-----4----4--3----3-3-3--5--
E----4-------4--------4-----4-------4-----------

Riffi 7
G---------------------------------
D-------2-------2-----------------
A-4-4-4-----4-4-----4-2-1-0---0-1-
E---------------------------4-----

Rakenne:
Intro
A-osa:
	Riffi 1 *4
	Riffi 2 *8
B-osa:
	Riffi 3 *3
	Riffi 4 *1
	Riffi 3 *3
	Riffi 4 *1
A-osa
C-osa:
	Riffi 5 *2
	Riffi 6 *6
D-osa:
	Riffi 7 *8

Pieni korjaus kuutosriffiin.

(Päivitetty 13.11.2000)


Muokkaa tabulatuuria »