CMX : Tabulatuurit : Jatkuu niinkuin sade

INTRO:

 4x
|------------0-----------------0-----9-----7-----|
|------0-------0---0---------6---6-----6-----6---|
|----6---6-------6---6-----7-------7-----7-----7-|
|--7-------7-----------7-0-----------------------|
|0-----------------------------------------------|
|------------------------------------------------|

Toisella kerralla tulevat mukaan kitarat 2. & 3., toinen soittaa sointuja
A5 ja D5, toinen A:ta ja Dm:a (huomaa tremolo-efekti).

 2x (sulkeiden sisällä oleva soitetaan vain ensimmäisellä kerralla)

 F5 / Fmaj7              A5 / A
|-------3----------------------------(----------)|
|-----0---0---3-----0-----------0----(------0---)|
|---2-------2---2-----2-------6------(----6-----)|
|-3---------------3-----3---7--------(--7-------)|
|-------------------------0----------(0---------)|
|------------------------------------(----------)|

Bassofilli:

|-9p7---7p6-------7-------|
|-----9-----7-7h9---9-7-5-|
|-------------------------|
|-------------------------|

SÄE: katso intro +

Kitara 4.
|-----------------------------------------------|
|-----------------------------------------------|
|-6-----4h6p4-4h6p4-/2---4-/6-------------------|
|-----------------------------------------------|
|--------------------------------7-/5-----------|
|-----------------------------------------------|

KERTOSÄE:

Em        F#m           Em              F#m
 Ja elämä jatkuu loputtomasti niinkuin sade
G                 A      G                 A
 Liian suuri loppuakseen, liian raskas jatkaakseen



Kitara 4. (2. säkeistö)
|--------------------------------------5--7-----|
|-5----5h7p5-3---------5----5h7p5-3-------------|
|-----------------------------------------------|
|-----------------------------------------------|
|-----------------------------------------------|
|-----------------------------------------------|







(Päivitetty 08.10.2000)


Muokkaa tabulatuuria »