CMX : Tabulatuurit : Kusimyrsky

CMX - Kusimyrsky

Esirippu:

e|-----|
B|-----|
G|-6-6-|
D|-x-x-|
A|-4-4-|
E|-2-2-|

Sitten kitara 1 veivaa jotain tllaista ihan vkisin aina sinne bridgeen
asti:

e|------------|
B|-2(2)2-2-3--3-|
G|-3h4--4-4-4--4-|
D|-4(4)4-4-4--4-|
A|---------------|
E|---------------|

Kitara 2. Vlill dempatummin, vlill vapaammin:

e|---------------|
B|---------------|
G|---------------|
D|---------------|
A|-10--7---9---9-|
E|-7777777-|


Bridge. Kitarat:

e|---------------------|     e|-----------------|
B|---------------------|     B|-----------------|
G|---------------------|     G|-----------------|
D|---------------------| 3x  D|-----------------| 1x
A|---------------------|     A|-----------------|
E|-1212-12-10-0-0-0-0-|     E|-0-0-0-0-0-0-0-0-|

Kertsi. Kitarat:

e|-----------------------|     e|--------------------|
B|-----------------------|     B|--------------------|
G|-----------------------|     G|----------9---------|
D|-----------------------| 3x  D|------7-----10------| 1x
A|-----------------------|     A|-8---------------9--|
E|-1212-12-10-0-0-0-0-0-|     E|--------------------|


Kertsin jlkeen junnataan taas muutama kierto.

Sitten kitara 1. soittaa nin:

e|------------------------------| 
B|-----2----3p2-------2---3p0---| 
G|-3h4---4------4-3h4---4-------| 
D|----------------------------4-| 
A|------------------------------| 
E|------------------------------|

Tss vliss soitetaan kitaraharmonioita, joista en saa selv.

Bridge. Toinen kitara soittaa melodiaa plle:

e|----------------------------------------|
B|----------------------------------------|
G|-4----3----7----6----4----3-------------|
D|-------------------------------5----4---|
A|----------------------------------------|
E|---------------------------------------|

Kertsi. Vapaa E j lopussa soimaan.

Basson nytkhtelyjen jlkeen:

Kitara 3.
e|-7--9--12--10-|
B|-7--8--12--12-|
G|-7--9--12--11-| Muutama kerta kahdella ensimmisell soinnulla,
D|--------------| jonka jlkeen kaksi viimeist mukaan kiertoon. Kuuntele
rytmi levylt.
A|--------------|
E|--------------|

Mukaan hiipivt kitara 1:
e|------------------------------| 
B|-----2----3p2-------2---3p0---| 
G|-3h4---4------4-3h4---4-------| 
D|----------------------------4-| 
A|------------------------------| 
E|------------------------------|

ja kitara 2. Kuuntele levylt, miten demppaus hlvenee loppua kohden.

e|---------------|
B|---------------|
G|---------------|
D|---------------|
A|-10--7---9---9-|
E|-7777777-|

Tuolla psee ainakin alkuun.

(Päivitetty 11/09/2018)


Muokkaa tabulatuuria »