CMX : Tabulatuurit : Maasi ei tarvitse sinua

Maasi ei tarvitse sinua
CMX


Riffi 1 x4

  E5      C#5/E   D5/E    C#5/E   
G---------------------------------
D---------------------------------
A-----2-------4-------5-------4---
E-0-0-0-0-0-0-0-0-0-0-0-0-0-0-0-0-


Riffi 2 x4

  E5      C#5/E   D5/E    C#5/E   
G---------------------------------
D---------------------------------
A-----2-------4-------5-------4---
E-0-0-0-0-0-0-0-0-0-0-0-0-0-0-0-0-

  B5              G5   
G---------------------------------
D-3-3-3-3-3-3-3-3-----------------
A-1-1-1-1-1-1-1-1-5-5-5-5-5-5-5-5-
E-----------------3-3-3-3-3-3-3-3-

lopullinen ratkaisu
maasi ei tarvitse sinua
viimeinen valssi
maasi ei tarvitse sinua
se uusi laki
maasi ei tarvitse sinua
isien työ
maasi ei tarvitse sinua


Riffi 3 x2

  - C5  H5  C5  D5  C5  H5  C5  G5   
G---------------------------------
D-X-5-5-4-4-5-5-7-7-5-5-4-4-5-5---
A-X-3-3-2-2-3-3-5-5-3-3-2-2-3-3-5-
E-------------------------------3-

X=tauko

  F5              C#5   
G---------------------------------
D-----------------6-6-6-6-6-6-6-6-
A-3-3-3-3-3-3-3-3-4-4-4-4-4-4-4-4-
E-1-1-1-1-1-1-1-1-----------------

kaupungin yllä
perkeleen linnut
ikuisen huudot
riekaleet yön


Riffi 4 x4

  D5          C5   (x3)
G-----------------
D-7-7-7-7-7-7-5-5-
A-5-5-5-5-5-5-3-3-
E-----------------

  D#5             F   
G-----------------------------------------
D-8-8-8-8-8-8-8-8-10-10-10-10-10-10-10-10-
A-6-6-6-6-6-6-6-6-8--8--8--8--8--8--8--8--
E-----------------------------------------

vanhukset syödään lusikoilla
ne silmäkuopat, hampaaton suu
jos kukaan liikahtaa
käännä katkaisinta
kaikkiallinen kusimyrsky
me virtsateiden vaeltajat
viimeinkin vaellamme yksin
meistä ei jumalakaan selvinnyt
polje ja alista kaikki
pyydä vielä kiittämään
ole oma patsaasi, maailmantornisi
pystyssä päin taivaita 


Riffi 3 x4

kaupungin yllä
perkeleen linnut
ikuisen huudot
riekaleet yön

riivatun varjot
kutsuu ja kutsuu

kaupungin yllä
perkeleen linnut


Riffi 2 x4

lopullinen ratkaisu
maasi ei tarvitse sinua
viimeinen valssi
maasi ei tarvitse sinua
se uusi laki
maasi ei tarvitse sinua
isien työ
maasi ei tarvitse sinua

Riffi 1 x4

(Päivitetty 26.12.2016)


Muokkaa tabulatuuria »