CMX : Tabulatuurit : Työt ja päivät

riffi1

E|-------------------------------------------------------|

B|-------------------------------------------------------|

G|-------------------------------------------------------| kitara 1

D|-7\6-6-6-6\3-3-3-3\2-2-2-2/3-3-3-3-3/6-6-6-6/7-7-7/9---|

A|-------------------------------------------------------|

E|-------------------------------------------------------|

 |                    |  x 2

E|-------------------------------------------------------|

B|-------------------------------------------------------|

G|-------------------------------------------------------| kitara 2

D|-------------------------------------------------------|

A|-8\7-7-7-7/8-8-8-8\7-7-7-7/5-5-5-5-5/7-7-7-7\5-5-5/7---|

E|-------------------------------------------------------| 



riffi2

E|----------------------------------------------------------------|

B|----------------------------------------------------------------|

G|------------------7/9-9/11-11/12-12---11-----------------9------| kitara
1

D|-----7-----9b10------------------12---12------------------------|

A|-xxx-7----------------------------------------------------------|

E|-xxx-5----------------------------------------------------------|

 |           |

E|----------------------------------------------------------------|

B|----------------------------------------------------------------|

G|----------------------------------4----------------------1------| kitara
2

D|-----7----------------------------5----------------------2------|

A|-xxx-7----------------------------5----------------------2------|

E|-xxx-5----------------------------3----------------------0------| 



fill 1

E|---------------------------------|

B|-9---/-12-\-11------12---\-7/9---|

G|-9---/-12-\-11------12---\-7/9---| ainoastaan kitara 1

D|-9---/-12-\-11------12---\-7/9---|

A|---------------------------------|

E|---------------------------------| riffi 3



E|----------------------------------------------------------------|

B|--------------------------------------------------------------9-|

G|-----------14\12-12\11-11\9-9\7-7--------------------7/9-9----8-| kitara
1

D|-----7---------------------------------------------------9----9-|

A|-xxx-7----------------------------------------------------------|

E|-xxx-5----------------------------------------------------------|

 |  |

E|----------------------------------------------------------------|

B|----------------------------------------------------------------|

G|--------------------------------4------------------------1------| kitara
2

D|-----7--------------------------5------------------------2------|

A|-xxx-7--------------------------5------------------------2------|

E|-xxx-5--------------------------3------------------------0------| 



fill 2

E|---------------------------------|

B|---------------------------------|

G|---------------------------------| molemmat kitarat

D|---------------------------------|

A|-----------------2---2-3-2-3-4-5-|

E|-0-2-3-2-3-5-3-5---5-------------| riffi 4





E|---------------------------------------------------------------------------------------------

B|---------------------------------------------------------------------------------------------

G|--------------------------------------------------------------------------------5------------

D|-5-------------------------------7--------------4-------------------------------5------------

A|-5-------------------------------7--------------4-------------------------------3------------

E|-3-------------------------------5--------------2--------------------------------------------

 |

E|----------------------------------------------------------------------------------------------

B|----------------------------------------------------------------------------------------------

G|--------------------------------------------------------------------------------5-5---5-5-----

D|-5-5---5-5---5-5---5-5---5-5---5-7-7---7-7------4-4---4-4---4-4---4-4---4-4---4-5-5---5-5-----

A|-5-5---5-5---5-5---5-5---5-5---5-7-7---7-7------4-4---4-4---4-4---4-4---4-4---4-3-3---3-3-----

E|-3-3---3-3---3-3---3-3---3-3---3-5-5---5-5------2-2---2-2---2-2---2-2---2-2---2---------------




E|----------------------------------------------------------------------------------------------

B|----------------------------------------------------------------------------------------------

G|--------------------------------------------------------------------------------3-------------

D|-5-------------------------------7--------------4-------------------------------4-------------

A|-5-------------------------------7--------------4------(feedback)---------------4-(feedback)--

E|-3-------------------------------5--------------2-------------------------------2-------------

 |

E|----------------------------------------------------------------------------------------------

B|----------------------------------------------------------------------------------------------

G|----------------------------------------------------------------------------------------------

D|-5-5---5-5---5-5---5-5---5-5---5-7-7---7-7------4-4---4-4---4-4---4-4---4-4---4-4---4-4---4-4-

A|-5-5---5-5---5-5---5-5---5-5---5-7-7---7-7------4-4---4-4---4-4---4-4---4-4---4-4---4-4---4-4-

E|-3-3---3-3---3-3---3-3---3-3---3-5-5---5-5------2-2---2-2---2-2---2-2---2-2---2-2---2-2---2-2-




E|-----------------|

B|-----------------|

G|---(3)-----------| kitara 1

D|---(4)-----------|

A|---(4)-----------|

E|---(2)-----------|

 |                 |

E|-----------------|

B|-----------------|

G|-----------------| kitara 2

D|-4-4---4-4---4---|

A|-4-4---4-4---4---|

E|-2-2---2-2---2---| riffi 1 x 2



riffi 2



riffi 3



filli 2





riffi 4 riffi 5

E|---------------------------------|

B|---------------------------------|

G|---------------------------------| molemmat kitarat

D|-----------------------------8---| x 4

A|-----------------------------8---|

E|-0-2-3-2-3-5-3-2-3-2-0-2-3-0-6---| riffi 6





E|----------------------------------|

B|----------------------------------|

G|----------------------------------| kitara 1

D|----------------------------------|

A|--------1-2------4------2-4-/10-\-|

E|-2--------------------------------|

 |            |

E|----------------------------------|

B|----------------------------------|

G|----------------------------------| kitara 2

D|------------------------3---------|

A|-----4-----------4----------------|

E|-2-------2-0------------------3---| 



E|----------------------------------|

B|----------------------------------|

G|----------------------------------| kitara 1

D|----------------------------------|

A|---------1-2-----4------2-4-/10tr\|

E|-2--------------------------------|

 |            |

E|----------------------------------|

B|----------------------------------|

G|----------------------------------| kitara 2

D|------------------------3---------|

A|-----4-----------4----------------|

E|-2-------2-0------------------3---| 



E|----------------------------------|

B|----------------------------------|

G|----------------------------------| kitara 1

D|----------------------------------|

A|---------1-2-----4------2-4-/10-\-|

E|-2--------------------------------|

 |            | x2

E|----------------------------------|

B|----------------------------------|

G|------------------------------3---| kitara 2

D|-----------------2------3---------|

A|-0---4----------------------------|

E|----------2-3---------------------| riffi 7



E|--------------------------------------------------------------|

B|--------------------------------------------------------------|

G|----------------------------------------6---------------------| molemmat
kitarat

D|---------4--------------2---2-----------6--------------5---5--|

A|---------4--------------2---2---4-4-4-4-4--------------5---5--| x4

E|-2-2-2-2-2------0-0-0-0-0---0------------------3-3-3-3-3---3--|

   . . . .        . . . .         . . . .        . . . .



E|-----|

B|-----|

G|-----|

D|-4---|

A|-4---|

E|-2---|



b= venytä

tr= trilli

/\= slide

()= sulkeissa olevat nuotit soivat edellisestä tahdista Ellen nyt väärin
muist riffi kakkosessa ja kolmosessa soi myös matalampi oktaavi

jota en ole merkinnyt enkä jaksa varmistaa asiaa. Kuunnelkaa CD:tä



- Yritin korjata käsittämättömän/puuttuvan rivityksen



(Päivitetty 14.09.2000)


Muokkaa tabulatuuria »