CMX : Tabulatuurit : Nimetön

ykkös kitaralla joku hyvä rock efekti ja kakkos kitaralla wah pedaali 

1 kitara
täsäpä alkua:
e-----------------------------
b-----------------------------
g-----------------------------
d-----------------------------
a----3-5-5-5-3----3-5-5-5-3---
e----1-3-3-3-1----1-3-3-3-1---

2 kitara
soolo (intro)

ja nuo b:thän ovat sitten 1/4 taivutuksia
e------------------------------------------------
b--------1-0--------1-0---------1-0--------3-0-
g-3b-0--------3b-0-0-----3b-0------3-0-0----
d------------------------------------------------
a------------------------------------------------
e------------------------------------------------



1 kitara
Soittakaa tuo kertaa kaksi, tai niin monesti kun tuntuu hyvältä

e-----------------------------------
b-----------------------------------
g-----------------------------------
d--------------------3-5-5-5-8-8-8-8
a----3-5-5-5-3-5-5-5-1-3-3-3-6-6-6-6
e----1-3-3-3-1-3-3-3----------------

Soittele välillä dempaten, kuuntele levyltä miten menee.
Joissakin laulunkohdassa en ollut varma, enkä jaksanut laittaa.
Katsokaa itse jotain F5 ja G5


(soolot) 


--------------------------------------------------------------
--------------------------------------------------------------
-10/12-12-12-10/12-12-12-12-12/10-10-10-10/9-9-9-9/7-7-7-5-5--
--------------------------------------------------------------
-8/10--10-10-8/10--10-10-10-10/8--8--8--8/7--7-7-7/5-5-5-3-3--
--------------------------------------------------------------
 Nelja kertaa jonka jalkeen...                                             
  

------------------------------------------------------------------------------
-8----------------------------------16-16-16-16-16-16-16-16-18-18-18-18-18-18-18-18-
-----------7---7/8---8/10---7-------------------------------------------------
------------------------------------16-16-16-16-16-16-16-16-18-18-18-18-18-18-18-18-
------------------------------------------------------------------------------
------------------------------------------------------------------------------
                                                                           
  

------------------------------------------------------------------------------
-8----------------------------------16-16-16-16-16-16-16-16-13-13-13-13-13-13-13-13
-----------7---7/8---8/10---7-------------------------------------------------
------------------------------------16-16-16-16-16-16-16-16-13-13-13-13-13-13-13-13
------------------------------------------------------------------------------
------------------------------------------------------------------------------
 Ajoituksia ei ole  edes yritetty mutta muuten ei pitaisi olla ongelmia.   
  



(Päivitetty 10.08.2000)


Muokkaa tabulatuuria »