CMX : Tabulatuurit : Ruoste

C  C   F  E            Am        Am
H--e----i, katso kuinka hiljaa kaikki

C  C   F  E          Am         
k--ä---y, mutta vuodet on lyhyet ja

C                   G           Am
kun kuu ja aurinko ovat yhdessä taivaalla

C                   G               Am      Am
minä kerään kaiken pihalle esiin ja poltan

Niin, kirjat ja paperit ehkä
myös, huonekalut ja muistot
kaikki valheet jotka tulevat elämän tielle
kaikki hyvä mikä estää näkemästä
 
      G
Se on ruoste

Hm          D         A                G
Savu nuolee raunioita tiedäthän miltä tuntuu

Hm          D                A           G
Lämmittää käsiään palaneiden kotien tuhkassa

Hei, katso kuinka hiljaa sataa
taas, tomu vuotten ylle
ehkä nämäkin murhaajan kädet etsivät päätä
jota silittää ja tuntea maailman paino

se on ruoste

KERTO...

Soinnut soitetaan tyyliin

        C       C        F       E     Am       Am
E-------------------------------------------------
H----1--1-----1--1-----1--1-----0-0-----1--1------
G---0-0--0---0-0--0-----2--2-----------2-2--2-----
D--2---2----2---2-----3--3-----2-2-2--2---2-------
A-3--------3---------3--------2------0------------
E-------------------1--------0--------------------
  Ja toiseen kertaan, ilman viimeistä Am
  ja sitten...

         C        G        Am         C   G   Am
E-----------------3--3----------------------------
H--------1--1------3--3----1----------------------
G-------0-0--0------0-----2-2---------jne---------
D------2---2-----0-------2---2------2-------------
A-0-2-3---------2-------0------0-2-3--------------
E--------------3----------------------------------

Intro
    Hm       D         A          G

E-----2--------2--------0--------3----3---
H---3----3---3----3---2----2------3----3--
G----4----4---2----2---2----2------0------
D-----4-4---0--0-0------2-2---------------
A--2-----------------0--------------------
E-------------------------------3--3-3----

Kertosäe menee suunnilleen samalla tavalla kun intro, mutta siinä on
kaksi kitaraa !!!

(Päivitetty 04.06.2000)


Muokkaa tabulatuuria »