CMX : Tabulatuurit : Ainomieli basso

Alkuse: 2x
G:-----------------------------------:
D:-----------------------------------:
A:-3-3-3-3-3-3-3-3-3-----------------:
E:-------------------1-1-1-1-4-4-4-4-:

Perusse 1: 6x
G:---------------------------------:
D:-----------------2-2-2-2-2-2-2-2-:
A:-3-3-3-3-------------------------:
E:---------5-5-5-5-----------------:

Perusse 2: 2x
G:---------------------------------:
D:-----------------2-2-2-2-3-3-3-3-:
A:-3-3-3-3-------------------------:
E:---------5-5-5-5-----------------:

Kertose sama kuin alkuse
3x

Vlisoitto: 4x
G:--------------------:
D:--------------------:
A:-----3-33-----4-----:
E:-1-1------4-4---2-2-:

Perusse 1: 4x

Perusse 2: 4x

Kertose: 3x

vlisoitto: 4x

Kertose: 3x

Untro: ???

(Päivitetty 03/10/2007)


Muokkaa tabulatuuria »