CMX : Tabulatuurit : Iskusävelmä

				      Iskusävelmä
.=demppus
/\=liuku


riffi 2   x4 (1. SÄE)
E|------------------------------------|
B|----------------------5-------------| kitara 1
G|--------****----------7-------------| 
D|-6------9678----------0-78-|   *=tämä liuku voi olla hieman vaikea
A|-7------7/15678----------7------|   kuulla mutta olen varma että
semmonen
E|---------------8--------------------|   soitetaan tuossa kohtaa


riffi 3   x4 (PRE-CHORUS)
E|---------------------------------|
B|---------------------------------|
G|---------------------------------| molemmat kitarat
D|-8-8-56785678-8-88-6-6-|
A|-5-5-5-5-5-5785678-5-5-4-4-|
E|---------------------------------|
 |				   |
E|---------------------------------|
B|---------------------------------|
G|-5---4-5------5---4-5--------6---| urku
D|-7---6-7------7---6-7--------4---|
A|---------------------------------|
E|---------------------------------|


riffi 4 (KERTOSÄE)
E|-----------------------------------------------------------------|
B|-----------------------------------------------------------------|
G|---------------------------------2-2-2-2-2-4-4-5-5-5-5-5-5-5-5-5-| kitara
1
D|-2-2-2-2-2-4-4-5-5-5-5-5-5-5-5-5-2-2-2-2-2-4-4-5-5-5-5-5-5-5-5-5-|
A|-2-2-2-2-2-4-4-5-5-5-5-5-5-5-5-5-0-0-0-0-0-2-2-3-3-3-3-3-3-3-3-3-|
E|-0-0-0-0-0-2-2-3-3-3-3-3-3-3-3-3---------------------------------|
 |							           |
E|---------*******-------------------------------------------------| 
B|10101010-8-8-8-812121212-7-7-7-71212121212121212121215151515-8-8-8-8-|
kitara 2
G|-----------------------------------------------------------------|
D|-7-7-7-7-5-5-5-5-9-9-9-9-5-5-5-5-7-7-7-7-7-7-7-712121212-5-5-5-5-|*=aivan
ensimmäistä kertaa 
A|-----------------------------------------------------------------|soitettaessä
tätä kohtaa  
E|-----------------------------------------------------------------|tähdellä
merkityt nuotit ovat
								    edelleen A ja sen oktaavi,
								    muutoin soitetaan kuten
								    merkitty
E|-----------------------------------------------------------------|		
B|-----------------------------------------------------------------|
D|---------------------------------5-5-5-5-5-4-4-2-2-2-2-2-2-------| kitara
1
D|-2-2-2-2-2-4-4-5-5-5-5-5-5-5-5-5-5-5-5-5-5-4-4-2-2-2-2-2-2-------|
A|-2-2-2-2-2-4-4-5-5-5-5-5-5-5-5-5-3-3-3-3-3-2-2-0-0-0-0-0-0-2-0---|
E|-0-0-0-0-0-2-2-3-3-3-3-3-3-3-3-3-------------------------------3-|
 |								   |
E|-----------------------------------------------------------------|
B|10101010-8-8-8-812121212-8-8-8-810101010-8-8-8-8-----------------|
G|-------------------------------------------------9-9-9-9-9-9-9-9-| kitara
2
D|-7-7-7-7-5-5-5-5-9-9-9-9-5-5-5-5-7-7-7-7-5-5-5-5-----------------|
A|-------------------------------------------------7-7-7-7-7-7-7-7-|
E|-----------------------------------------------------------------|


E|-----------------------------------------------------------------|
B|-----------------------------------------------------------------|
G|---------------------------------2-2-2-2-2-4-4-5-5-5-5-5-5-5-5-5-| kitara
1
D|-2-2-2-2-2-4-4-5-5-5-5-5-5-5-5-5-2-2-2-2-2-4-4-5-5-5-5-5-5-5-5-5-|
A|-2-2-2-2-2-4-4-5-5-5-5-5-5-5-5-5-0-0-0-0-0-2-2-3-3-3-3-3-3-3-3-3-|
E|-0-0-0-0-0-2-2-3-3-3-3-3-3-3-3-3---------------------------------|
 |							           |
E|-----------------------------------------------------------------| 
B|10101010-8-8-8-812121212-7-7-7-7101010101010101015151515-8-8-8-8-|  
G|-----------------------------------------------------------------| kitara
2 
D|-7-7-7-7-5-5-5-5-9-9-9-9-5-5-5-5-7-7-7-7-7-7-7-712121212-5-5-5-5-|
A|-----------------------------------------------------------------|
E|-----------------------------------------------------------------|


E|---------------------------------------------------------------------------------|
B|---------------------------------------------------------------------------------|
D|---------------------------------5-5-5-5-5-4-4-2-2-2-2-2-2-2-2-2-2-2-2-2-2-2-2-2-|
kitara 1
D|-2-2-2-2-2-4-4-5-5-5-5-5-5-5-5-5-5-5-5-5-5-4-4-2-2-2-2-2-2-2-2-2-2-2-2-2-2-2-2-2-|
A|-2-2-2-2-2-4-4-5-5-5-5-5-5-5-5-5-3-3-3-3-3-2-2-0-0-0-0-0-0-0-0-0-0-0-0-0-0-0-0-0-|
E|-0-0-0-0-0-2-2-3-3-3-3-3-3-3-3-3-------------------------------------------------|
 |								                   |
E|---------------------------------------------------------------------------------|

B|10101010-8-8-8-812121212-8-8-8-810101010-8-8-8-8---------------------------------|
G|-------------------------------------------------9-9-9-9-9-9-9-9-9-9-9-9-9-9-9-9-|
kitara 2
D|-7-7-7-7-5-5-5-5-9-9-9-9-5-5-5-5-7-7-7-7-5-5-5-5---------------------------------|
A|-------------------------------------------------7-7-7-7-7-7-7-7-7-7-7-7-7-7-7-7-|
E|---------------------------------------------------------------------------------|


riffi 1   x2

riffi 2.1   X2 (TOINEN SÄE)
E|-----------------------------------------------------------------|
B|-----------------33333-33333-333-55555-55555-555-----------------|
G|-99999-99999-999-00000-00000-000-77777-77777-777-99999-99999-999-| kitara
1
D|-99999-99999-999-22222-22222-222-00000-00000-000-99999-99999-999-|
A|-77777-77777-777-33333-33333-333-----------------77777-77777-777-|
E|-----------------------------------------------------------------|
 | ..... ..... ... ..... ..... ... ..... ..... ... ..... ..... ... |
E|---------------------------------00000-00000-000-----------------|
B|-----------------33333-33333-333-33333-33333-333-----------------|
G|-----------------00000-00000-000-22222-22222-222-----------------| kitara
2
D|-22222-22222-222-22222-22222-222-00000-00000-000-22222-22222-222-|
A|-22222-22222-222-33333-33333-333-----------------22222-22222-222-|
E|-00000-00000-000---------------------------------00000-00000-000-|
   ..... ..... ... ..... ..... ... ..... ..... ... ..... ..... ...


riffi 3   x4



filli 1  tarpeeksi monta kertaa   
E|----------------|
B|----------------|
G|*******---------| Kitara 2
D|5-5-5-5-5-2-5-5-|   
A|*******---------| *=neljä ensimmäistä nuottia soivat aivan fillin
alussa eikä niitä toisteta
E|----------------|   Kitara 2 soittaa tätä myös kertosäkeen aikana.
Kuunnelkaa itse

intro
e|-----------------------------|
B|-----------------------------|
G|-----------------------------|
D|6-6-6-9-9-9-6-6-6-9-9-9-6-9-6|
A|-----------------------------| 
E|-----------------------------|

e|-------------------------|
B|--------5---------------5|
G|--------5---------------5|     
D|3-3-3-3-3---3-3-3-3-3-3-3|
A|pm.....-----pm.........--|
E|-------------------------|
 
e|------------------------------------|
B|------------------------------------|
G|9-9-9-11-11-11-9-9-9-11-11-11-9-11--|
D|-----------------------------------9|
A|------------------------------------|
E|------------------------------------|

e|---------------------------|
B|---------------------------|
G|---------------------------|
D|----------2---------------2|
A|----------2---------------2|
E|0-0-0-0-0-0---0-0-0-0-0-0-0|
Kertosäettä loppuajan, kuunnelkaa itse miten se tarkalleen menee

sähköpostiosoite muuttunut...


Tuomas Rönkkö (tuomas.ronkko@pp.nic.fi)
Antti Saavinen (antsa84@surfeu.fi)


(Päivitetty 26.04.2000)


Muokkaa tabulatuuria »