CMX : Tabulatuurit : Paha

CMX/Paha/Discopolis(CMX/A.W.Yrjänä)

Soinnuiksi väänsi: T. Badd


intro/a2-osa:

  D5    D5 C5*     D5D5D5C5*  D5 C5*
|--------------------------------------|
|--------------------------------------|
|-7-----7--5-x-----7-7-7-5-x--7--5-x---|
|-7-----7--5-x-----7-7-7-5-x--7--5-x---|
|-5-----5--3-x-----5-5-5-3-x--5--3-x---|
|--------------------------------------|

*staccatona 


a-osa:

  C5    D5 C5*     D5D5D5C5*  D5 C5*
|--------------------------------------|
|--------------------------------------|
|-5-----7--5-x-----7-7-7-5-x--7--5-x---|
|-5-----7--5-x-----7-7-7-5-x--7--5-x---|
|-3-----5--3-x-----5-5-5-3-x--5--3-x---|
|--------------------------------------|

*staccatona 


b-osa:


|--------------------------------------|
|--------------------------------------|
|-2------------------------------------|
|-2------------------------------------|
|-0------------------------------------|
|--------------------------------------|


filli:


|--------------------------------------|
|--------------------------------------|
|--------------------------------------|
|--------------------------------------|
|------------------------------0203050-|
|--------------------------------------|



kerto2:

  A5         C5
|--------------------------------------|
|--------------------------------------|
|-2----------5-------------------------|
|-2----------5-------------------------|
|-0----------3-------------------------|
|--------------------------------------|

  C5         A5
|--------------------------------------|
|--------------------------------------|
|-5----------2-------------------------|
|-5----------2-------------------------|
|-3----------0-------------------------|
|--------------------------------------|


|--------------------------------------|
|--------------------------------------|
|--------------------------------------|
|--------------------------------------|
|--------------------------------------|
|--------------------------------------|


|--------------------------------------|
|--------------------------------------|
|--------------------------------------|
|--------------------------------------|
|--------------------------------------|
|--------------------------------------|

  C5
|--------------------------------------|
|--------------------------------------|
|-5------------------------------------|
|-5------------------------------------|
|-3------------------------------------|
|--------------------------------------|

  D5
|--------------------------------------|
|--------------------------------------|
|-7------------------------------------|
|-7------------------------------------|
|-5------------------------------------|
|--------------------------------------|

  E5
|--------------------------------------|
|--------------------------------------|
|-9-x----------------------------------|
|-9-x----------------------------------|
|-7-x----------------------------------|
|--------------------------------------|

Koostis:

....jazz-komppia rummuilla.....
intro 2x
a-osa 2x     "olen perin juurin paha..."
b-osa 3x     "..sillä olen paha..."
filli 
a2-osa 2x    "käteni ovat vikkelästi hameesi alla..."
b2-osa       "..sillä olen paha..."

Muuta:
Rytmillisesti ei kohdallaan. 
Soinnut/tabit ovat kappaleen kosketin osuudet. 
Kitarat ja torvet ja muut jamittelvat. 
a2-osasassa (jos oikein kuulin)
toinen kitara jamitteelee korkeata D:tä.

(Päivitetty 25.04.2000)


Muokkaa tabulatuuria »