CMX : Tabulatuurit : Rikkisuudeltu

CMX - Rikkisuudeltu


	Intro
|-----------------------------------------------------|
|-----8-7---3---0---5---3-----------8-7---3---0-5-----|
|---0---------0-------0---0-------0---------0---------|
|-----------------------------------------------------|
|-7-------2-------3-------------7-------2-------3-----|
|-----------------------------------------------------|

	Säkeet
										(kitara 1)
|-----------------------------------------------------------------
|-----8-------7-------3-------0-------5-------5-------5-------5---
|---0---0---0---0---0---0---0---0---0---0---0---0---0---0---0---0-
|-----------------------------------------------------------------
|-7-------7-------2-------2-------3-------3-------3-------3-------
|-----------------------------------------------------------------
										(kitara 2)
|------------------------------------------------------------------
|---8-----8-----8---3-----3-----3---5-----5----(5)---(5)---(5)-----
|------------------------------------------------------------------
|------------------------------------------------------------------
|-7-----7-----7---2-----2-----2---3-----3----(3)---(3)---(3)---(3)-
|------------------------------------------------------------------

                                                      	(kitara 1)
------------------------------------------------------------------|
-----8-------7-------3-------0-------5-------3-------0-------0----|
---0---0---0---0---0---0---0---0---0---0---0---0---0---0---0---0--|
------------------------------------------------------------------|
-7-------7-------2-------2-------3-------3-------3-------3--------|
------------------------------------------------------------------|
                                                       	(kitara 2)
------------------------------------------------------------------|
---8-----8-----8---3-----3-----3---5-----5----(5)---(5)---(5)-----|
------------------------------------------------------------------|
------------------------------------------------------------------|
-7-----7-----7---2-----2-----2---3-----3----(3)---(3)---(3)---(3)-|
------------------------------------------------------------------|
			(noi sulkuihin merkityt tulis vasta 2.säkeessä)


	Bridge
								(kitara 1)
|-----------------------------------------------------------------|
|-----------------------------------------------------------------|
|-----------------------------------------------------------------|
|-9-9-9-9-9-9-9-9-7-7-7-9-9-9-7-7-5-5-5-5-5-5-5-5-5-5-5-5-5-5-5-5-|
|-10101010101010108-8-8-1010108-8-3-3-3-3-3-3-3-3-3-3-3-3-3-3-3-3-|
|-----------------------------------------------------------------|
								(kitara 2)
|-----------------------------------------------------------------|
|-121212121212121210101012121210105-5-5-5-5-5-5-5-5-5-5-5-5-5-5-5-|
|-121212121212121210101012121210105-5-5-5-5-5-5-5-5-5-5-5-5-5-5-5-|
|-----------------------------------------------------------------|
|-10101010101010108-8-8-1010108-8-3-3-3-3-3-3-3-3-3-3-3-3-3-3-3-3-|
|-----------------------------------------------------------------|

 \\\"Sydäntä ei kierrättää voi...\\\"


	Kertsi

  Em  Hm | C  Csus2  x4

 \\\"Sillä on ruusuja sormenpäissä...\\\"

(Intro -kuvio sopis kans tohon päälle ku nenä pyllyyn, mut jos se
 siihen on soitettu, se on miksattu aika hiljaiselle...)



	Väliosa
									(kitara 1)
|-------------------------------------------------------------|
|-8-------6---10------6---8-----------8-------6---10------6---|
|-8-------8---10------8---9-----------8-------8---10------8---|
|-8-------8---10------8---9-----------8-------8---10------8---|
|-6-----------8-----------7-----------6-----------8-----------|
|-------------------------------------------------------------|
									(kitara 2)
|-------------------------------------------------------------|
|-------------------------------------------------------------|
|-12------10--14------10--12----------12------10--14------12--|
|-13------13--15------13--14----------13------13--15------13--|
|-------------------------------------------------------------|
|-------------------------------------------------------------|

 \\\"Enkä mä tiedä sitä missä mun kotini on..\\\"



Jesf! Kivoja soitteluja!


(Päivitetty 29.12.2013)


Muokkaa tabulatuuria »