CMX : Tabulatuurit : Enteitä

riffi 1
E|-----------------------|
B|-----------------------| 
G|-----------------------| 7x
D|-----------------------|
A|-4---44---44---44245---|
E|-----------------------|


filli 1
E|---------|
B|---------|
G|---------|
D|-4---2---|
A|-4---2---|
E|-2---0---|


riffi 2
E|---------------------|
B|---------------------|
G|-7---77---77---555---| 8x
D|-7---77---77---555---|
A|-5---55---55---333---|
E|---------------------|


filli 2
E|-------------|
B|-----7-------|
G|-3---7---6-6-| 2x
D|-4---7---7-7-|
A|-4---5---7-7-|
E|-2-------5-5-|


riffi 2.1 (toinen kitara soittaa tätä samalla kun toinen riffi 2)
E|---------------------|
B|-7---77---77---888---|
G|-7---77---77---777---| 8x
D|-7---77---77---777---|
A|---------------------|
E|---------------------|


riffi 2    2x


filli 3
E|---------------------------------|
B|---------------------------------|
G|---------------------------------|
D|-2-2-2-2-2-2-2-2-5-5-5-5---7-7---|
A|-2-2-2-2-2-2-2-2-5-5-5-5---7-7---|
E|-0-0-0-0-0-0-0-0-3-3-3-3---5-5---|
 | . . . . . . . . . . . .   . .   |
E|---------------------------------|
B|---5------5---5---3/5-5----3-5---|
G|-----4------4-----------4--------|
D|---------------------------------|
A|---------------------------------|
E|-0-------------------------------|


riffi 3 (soinnut toiselle kitaralle: D C A. Lopuksi muutama liuka G:stä
A:han)
E|---------------------------------------------------------------|
B|-7---7---8-7-5-7---7---8-7-5-5-5-5---5---6-5-3-5---5-5-3---5---|
G|-7---7---7-7-7-7---7---7-7-7-0-0-5---5---5-5-5-6---6-6-4---6---|
D|---0---0---------0---0-------------------------7---7-7-5---7---|
A|-----------------------------------3---3-------7---7-7-5---7---|
E|---------------------------------------------------------------|
     											2x
E|-----------------------------------------------------------------7-7-7-7-9-9-9-9-|
B|-6h7-7-7-6h7-7-7-6h7-7-7-6h7-7-7-6h7-7-6h7-4h5-5-5-4h5-5-5-4h5-5-8-8-8-810101010-|
G|*7*--7-7-7---7-7-7---7-7-7---7-7-7---7-7---5---5-5-5---5-5-5---5-7-7-7-7-9-9-9-9-|
D|-*-------------------------------------------------------------------------------|
A|---------------------------------------------------------------------------------|
E|---------------------------------------------------------------------------------|
 * = jää soimaan kuten muissakin vastaavissa soinnuissa joissa on
nauhaiskuja


riffi 1   7x

filli 4
E|---------|
B|---------|
G|-----8---|
D|-4---8-8-|
A|-4---6-8-|
E|-2-----6-|


laulua ilman kitaraa 
filli 2    2x
riffi 2.1  8x
filli 2    2x
filli 3    1x
riffi 3    2x
riffi 1    1x (viimeinen sävel Cis pienen liu'un kanssa)


(Päivitetty 10.04.2000)


Muokkaa tabulatuuria »