CMX : Tabulatuurit : Pornogeneraattori

riffi 1
E|---------------------------------|
B|---------------------------------|
G|---------------------------------| 4x
D|-----5-5-7-7---------9-91010-----|
A|-5-5-3-3-5-5-7-7-9-9-7-7-8-81010-|
E|-3-3---------5-5-7-7---------8-8-|


riffi 2
E|---------------------------------|
B|---------------------------------|
G|---------------------------------|
D|---------8-8-8-8--------10101010-|
A|-5-5-5-5-6-6-6-6-8-8-8-8-8-8-8-8-|
E|-3-3-3-3---------6-6-6-6---------|
 | . . . . . . . . . . . . . . . . |      6x
E|---------------------------------|
B|---------------------------------|
G|---------8-8-8-8--------10101010-|
D|---------8-8-8-8--------10101010-|
A|-5-5-5-5-6-6-6-6-8-8-8-8-8-8-8-8-|
E|-3-3-3-3---------6-6-6-6---------|
   . . . .         . . . .

riffi 3
E|-------------------------------------------------|
B|-------------------------------------------------|
G|-------------------------------------------------|
D|-------------------------------------------------| 2x
A|-5-222-2-222-5-222-2-222-5-222-2-222-2-5-7-8-7-5-|
E|-3-000-0-000-3-000-0-000-3-000-0-000-0-3-5-6-5-3-|
   . ... . ... . ... . ... . ... . ...

riffi 4
E|-----------------------------------------------------------------|
B|-----------------------------------------------------------------|
G|-----------------------------------------------------------------|
D|-----------------5-5-5-5-5-5-5-5-----------------7-7-7-7-7-7-7-7-|
A|-5-5-5-5-5-5-5-5-3-3-3-3-3-3-3-3-7-7-7-7-7-7-7-7-5-5-5-5-5-5-5-5-|
E|-3-3-3-3-3-3-3-3-----------------5-5-5-5-5-5-5-5-----------------|

E|-----------------------------------------------------------------|
B|-----------------------------------------------------------------|
G|-----------------------------------------------------------------|
D|-----------------9-9-9-9-9-9-9-91010101010101010-5-5-5-5-5-5-5-5-|
A|-9-9-9-9-9-9-9-9-7-7-7-7-7-7-7-7-8-8-8-8-8-8-8-8-3-3-3-3-3-3-3-3-|
E|-7-7-7-7-7-7-7-7-------------------------------------------------|


riffi 1    1x
riffi 4    1x
riffi 2    6x
riffi 3    2x
riffi 4    3x

riffi 5 
E|---------------------------------|
B|---------------------------------| (uskaltaisin väittää että
bassokitaran takia
G|-----5-------7-------9--10---5---|  soinnut eivät kuullosta aivan
"puhtailta"
D|-5---5---7---7---9---9--10---5---|  vitossoinnuilta)
A|-5---3---7---5---9---7---8---3---|
E|-3-------5-------7---------------|

riffi 1  1x

loppusointu
E|---|
B|---|
G|---|
D|-5-|
A|-5-|
E|-3-|

(Päivitetty 09.04.2000)


Muokkaa tabulatuuria »