CMX : Tabulatuurit : Ennustaja

 	br=venytä ja vapauta
	h=hammer-on
	p=pull-off
	.=demppaus
intro
E|-----------------------------------------------------------------------|
B|-----------------------------------------------------------------------|
G|---4-6-6br7-4---6---6-4---------4~-------4-6-6br7-4---6---6-4-----4~---|kitara
1
D|-4------------4-----------7---7------2/4------------4-----------7------|
A|-----------------------------------------------------------------------|
E|-----------------------------------------------------------------------|

E|-------------------------------------------------------------------------|
B|-------------------------------------------------------------------------|
G|-----4-6-6br7-4---6---6-4---------4~-------4-6-6br7-4---6---6-4-----4~---|
D|-2/4------------4-----------7---7--------4------------4-----------7------|
A|-------------------------------------------------------------------------|
E|-------------------------------------------------------------------------|
  
E|-----------------------------------------------------------------|
B|---------3-------------------------------------------------------| 
G|---------4---------------4---------------6---------------1-------| kitara
2 
D|-4---4---4---4-----------5---------------7---------------2-------| 4x
A|-2---2---2---2-5---5-5---5---5-5-7---7---7---7-2-2-2-2---2---2-2-|
E|---------------3---3-3---3---3-3-5---5---5---5-0-0-0-0---0---0-0-|




riffi 1				   1. 2. 3.          4.
E|--------------------------------|-----------------|---------------|
B|--------------------------------|-----------------|---------------|
G|--------------------------------|-----------------|--------1------|
D|-6------6---6-6---9-9---9---9-9-|4----4----2------|-4------2------|
A|-6------6---6-6---9-9---9---9-9-|4----4----2------|-4------2------|
E|-4------4---4-4---7-7---7---7-7-|2----2----0------|-2------0------|


riffi 2 (akustinen ja sähkökitara)
E|-----------------------------------------------------------------|
B|-4---4---4---4-4---4-4---4---4-4---------------------------------|
G|-4---4---4---4-4---4-4---4---4-4-3---3---3---3-3---3-3---3---3-3-|
D|-4---4---4---4-4---4-4---4---4-4-4---4---4---4-4---4-4---4---4-4-|
A|-2---2---2---2-2---2-2---2---2-2-4---4---4---4-4---4-4---4---4-4-|
E|---------------------------------2---2---2---2-2---2-2---2---2-2-|
   .   .   .   . .   . .   .   . . .   .   .   . .   . .   .   . .    4½x
(viimeisellä kerralla
E|-----------------------------------------------------------------|
C#m-soinnun jälkeen tulee
B|-5---5---5---5-5---5-5---5---5-5---------------------------------|
E-duuri)
G|-6---6---6---6-6---6-6---6---6-6-6---6---6---6-6---6-6---6---6-6-|
D|-6---6---6---6-6---6-6---6---6-6-7---7---7---7-7---7-7---7---7-7-|
A|-4---4---4---4-4---4-4---4---4-4-7---7---7---7-7---7-7---7---7-7-|
E|---------------------------------5---5---5---5-5---5-5---5---5-5-|
   .   .   .   . .   . .   .   . . .   .   .   . .   . .   .   . .


   *=anna soida
E|-*-----------*-------*-------------------------------------------|
B|-7-----------7-------7-------------------------------------------|
G|-----9---8-------9-------9---8--------8---8---8h9p8-----9--------| kitara
3 soittaa tätä
D|---------------------------------11----------------11----------9-| riffi
2 päälle 3. kerran 
A|---------------------------------*-----------------*-------------|
jälkeen
E|-----------------------------------------------------------------|

E|-*-----------*-------*-------------------------|
B|-7-----------7-------7-------------------------|
G|-----9---8-------8-------9---8h9p8-----8-------|			
D|-----------------------------------11-11-------|
A|-----------------------------------------------|
E|-----------------------------------------------|

E|-*-----------*-------*-------------------------------------------|
B|-7-----------7-------7-------------------------------------------|
G|-----9---8-------9-------9---8--------8---8---8h9p8-----9--------|
D|---------------------------------11----------------11----------9-|
A|---------------------------------*-----------------*-------------|
E|-----------------------------------------------------------------|

 riffi 3
E|-----------------------------------------------------------------|
B|-----------------------------------------------------------------|
G|-4-4-4-4-4-4-4-4-------------------------------------------------| 2x
D|-4-4-4-4-4-4-4-4-5-5-5-5-5-5-5-5-7-7-7-7-7-7-7-7-9-9-9-9-9-9-9-9-|
A|-2-2-2-2-2-2-2-2-5-5-5-5-5-5-5-5-7-7-7-7-7-7-7-7-7-7-7-7-7-7-7-7-|
E|-----------------3-3-3-3-3-3-3-3-5-5-5-5-5-5-5-5-0-0-0-0-0-0-0-0-|


riffi 1 4x


soolo w\\\\ riffi 2   2x
E|-----------------------------------------------|
B|-----------------------------------------------|
G|-----------------------------------------------|
D|-------9---9-9p8-------------------------------|
A|-------------------9---9-9/11------------------|
E|-7h9--------------------------9---9-11-12------|

E|-----------------------------------------------------------|
B|-----------------------------------------------------------|
G|------------------------------------9-8--------------------|
D|-------9---9-9p8---9/11---9-11-11-------11-9-9h11p9p7------|
A|-----------------9-----------------------------------------|
E|-7h9-------------------------------------------------------|


riffi 2  4½x (viimeisellä kerralla Fis-duurin jälkeen tulee E-duuri)


riffi 3 (pieniä muutoksia mutta kirjoitanpa ne kuitenkin)
E|---------------------------------------------------------------------|
B|---------------------------------------------------------------------|
G|-4-4-4-4-4-4-4-4---------------------------------7/9-9-9-9-7/9-9-9-9-| 4x
(viimeisellä kerralla
D|-4-4-4-4-4-4-4-4-5-5-5-5-5-5-5-5-7-7-7-7-7-7-7-7-7/9-9-9-9-7/9-9-9-9-|   
ei mitään D:stä E:hen
A|-2-2-2-2-2-2-2-2-5-5-5-5-5-5-5-5-7-7-7-7-7-7-7-7-5/7-7-7-7-5/7-7-7-7-|   
liukuja)
E|-----------------3-3-3-3-3-3-3-3-5-5-5-5-5-5-5-5---------------------|



 riffi 4
E|-12-14-15------17---14---15---------|
B|----------14------------------12~---|
G|------------------------------------|
D|------------------------------------|
A|------------------------------------|
E|------------------------------------|
										4x
E|---------------------------------------------------------------|
B|---------------------------------------------------------------|
G|-4------4---4-4------------------------------------------------|
D|-4------4---4-4-5-5-5---5---5-5-7------7---7-7-2-2-2---2---2-2-|
A|-2------2---2-2-5-5-5---5---5-5-7------7---7-7-2-2-2---2---2-2-|
E|----------------3-3-3---3---3-3-5------5---5-5-0-0-0---0---0-0-|


outro
E|---------------------------------------------------------------|
B|---------------------------------------------------------------|
G|-4------4---4-4------------------------------------------------| 4x ja
sitten jatka edelleen 
D|-4------4---4-4-5-5-5---5---5-5-7------7-----------------------|   
demppaamista ja lopuksi
A|-2------2---2-2-5-5-5---5---5-5-7------7-------7---7---7---7---|    tukee
E5
E|----------------3-3-3---3---3-3-5------5-------0---0---0---0---|
					         .   .   .   .		


Olen nähnyt yhden tästä kappaleesta tehdyn nuotin ja siinä pisti
silmään semmoinen asia että
viritystä oli laskettu puoli sävelaskelta. Mikäs siinä mutta ajattelin
että tuskin kappaletta on 
sillä virityksellä levyllä soitettu joten tein oman version tästä
mainiosta kappaleesta

P.S Montako kertaa joku riffi on soitettu, sen minä laskin jälkeenpäin
pelkästä muistista joten 
    ei välttämättä kannata luottaa merkintöihin. Riffi 2 aikana
soitettava kitara on hieman
    hämärän peitossa joten olisin kiitollinen jos joku viitsisi jakaa
oman mielipiteensä 
    kyseisestä riffistä

(Päivitetty 02.04.2000)


Muokkaa tabulatuuria »