CMX : Tabulatuurit : Kaksi jokea

Kitara 1:
e------------------------
H-----------------pp--------
G----------2-2-0--420-----
D--------------------4--
A--2-2--------------------
E--0-0-3-3---------------- melkein koko biisin ajan


Kitara 2:
e--5-6--5--
H--5-5--5--
G----------
D----------
A----------
E----------    

laulun aikana kitara 2 osapuilleen näin:
e-----------
H-----------
G-7/9-xxxx--
D-----xxxx--
A-5/7-xxxx--
E-----------


    E      G    A
minun veteni on mustaa
niinkuin vetesi on valkoista
niin se on kirjoitettu
kuin vesi on valkoista
minun veteni on mustaa
sanottu ihmisäänin


C#m           H
nosta kasvosi maasta      
      C#m            H
nosta kohti nousevaa kuuta
      C#m           H
katso kuinka pilvet kerääntyy
      A        G
tunne ihollasi tuulia

Kerto:
e----------------------------------------------------------------
H----------------2---------------------------------2-------------
G----------------2---4b5-4-2-0---------------------2---4b5-4-2-0- kitara 1
D-----5----------2-------------------5-------5h7---2-------------
A-2-----5-5h7~---0---------------2-----5-5h7-------0-------------
E-0------------------------------0-------------------------------

e----------------------------------------------------------------
H----------------2-------8-------------------------2------8/-----
G-9--9-9\7-7\2-2-2----------------9--9-9/7-7/2-2---2------------- kitara 2
D-9--------------2----------------9----------------2-------------
A-7--7-7\5-5\0-0-0----------------7--7-7/5-5/2-2---0-------------
E----------------------------------------------------------------


[tähän väliin alussa olevia riffejä]

E      G    A
täällä oli virta joskus
täällä tehtiin ihmistyötä
niin se on kirjoiotettu
itkettiin ja naurettiin
ehkä enimmälti itkettiin
sanottu ihmisäänin
C#m       H
etsimässä voimapaikkaa
C#m       H
etsimässä kiviä
C#m        H
joilla oli merkittynä
A            G
paikat josta katsoa

[kerto]

    E           C
kun kaksi jokea vierettäin
E          C
virtaa eri suuntiin
E      C
toinen pohjoiseen
D
toinen etelään
               D7
siinä on vedet kylvettää
A           A7
kahta tietä menevät
E
toiseen syntyneet
E
toiseen kuolleet

(Päivitetty 15.08.1999)


Muokkaa tabulatuuria »