CMX : Tabulatuurit : Arcana

Intro (akustisella kitaralla)

E|-------------------------------------------|
H|--4-4---4-4---4-4-----4-4---2-2---4p2p0-0--|
G|-------------------------------------------|x2
D|-------------------------------------------|
A|--2-----2-----2-------2-0---0--------------|
E|----------------------------------------4--|

E|-------------------------------------------|
H|--3--5--3--2--0----------------------------|
G|-----------------2--4\1--1-----------------|
D|-------------------------------------------|
A|-------------------------------------------|
E|--3--------2--------0----------------------|

E|-------------------------------------------|
H|--3--5--3--2--0----------------------------|
G|-----------------2--4----------------------|
D|-------------------------------------------|
A|-------------------------------------------|
E|--3--------2--------0----------------------|

Tästä eteenpäin en jaksanu korjailla, eli tuo loppu voi olla vähän
perseellään.
- Korjasin tuota introa. Olen melkein varma, että se menee noin, koska
kuuntelin levyltä.
-Niinkin suuri muutos, että yksi bassonuotti korjattu.


RIFFI 1
     
   E5      G5  F#5    E5      G5  F#5    E5      G5  F#5   A5
e|---------------------------------------------------------5*-
A|--5*------3*--2*-----5*------3*--2*-----5*------3*--2*------
D|------4*-----------------4*-----------------4*--------------  x2 
G|------------------------------------------------------------
H|------------------------------------------------------------
E|------------------------------------------------------------

* = kuuntele levyltä kuin monesti se napsuttelu tulee...
(ajoitukset ei edelleenkään oikein)

H                       A          G#m
älä ole suruissasi, älä enää niin vihainen...
                             
A:n tilalla saattaisi olla A7 mut en ole ihan varma tuosta.

Sitten taas Riffi ykönen 2min 24sec kohdalla.

H5                          A5              G#5 (dempattuna?)
Yön maku kun lunnut syöksyy mustina siipinä tähtiä päin...

3min 30sec kohdalla tällainen:

D5 C#5 H5 x2

Yhtäaikaa H5:sen kanssa soitetaan tällainen:

E|--5~--4~-------------
H|----------7~--5~-----
G|---------------------
D|---------------------
A|---------------------
E|---------------------

3min 48sec kohdalla taas Riffi 1

4min 20sec kohdalla

H                        A              G#m  soitetaan todella hiljaa 
Elämän pieni piiri pienenee, isä leikkaa pihalla heinää

4min 54sec kohdalla: 

E|-----------------------------------------------------------
H|--3--5--3---------------------3--5--3----------------------
G|--0--------6--4--2--4--1------0--------6--4--2--4----------
D|-----------4--------2------------------4--------2----------
A|-----------------------------------------------------------
E|-----------------------------------------------------------
Tämän vuoksi kaikki jää kesken


Lisäsin bassokuvion säkeistöstä -leksi

G |-------------------------------------|
D |-------------------------------------|
A |--------------6----------------------|
E |--7-7-5--7-7-7---7-7-7-5--7-4-4-0--2-|

Taitaapi tuo basso mennä näin;
G |---------------------------------------|
D |---------------------------------------|
A |----------------6----------------------|
E |--7-7-5--7--7-7----7--5-5-5--4-4-0--4--|

-S

(Päivitetty 01.04.2000)


Muokkaa tabulatuuria »