CMX : Tabulatuurit : Rytmitehdas

riffi 1
E|------------------------------------------------------------------------|
B|-----7---10-8-7---------------------------------------------------------|
G|-7-----7--------9--------9-11---9---9-------9---11-9--------------------|
4x  
D|--------------------11------------------9--------------12---9-------9---|

A|--------------------------------------------------------------12-12-----|
E|------------------------------------------------------------------------|
	                              	                      			
E|-----------------------9-------9------------10--------------------------|
B|---------10---10--------------------8---8--------8-7---------7----------|
G|-7---7-----------9---9---9---9--------------------------7---------7-7---|
kitara 1 soittaa
D|------------------------------------------------------------------------|
tätä toisen kerran
A|------------------------------------------------------------------------|
jälkeen
E|------------------------------------------------------------------------|

Lisäsin vain intron "bassokuvion"..
G||---------------------------|--------------------------|
D||*--------------------------|--------------------------|
A||*--5--5--5--5--5--5--5--5--|--------------------------|
E||---------------------------|--5--5--5--5--5--5--5--5--|
                                                      
G||---------------------------|---------------------------||
D||*--------------------------|--------------------------*||
A||*--3--3--3--3--3--3--3--3--|--2--2--2--2--2--0--2--3--*||
E||---------------------------|---------------------------||

kitara ykkösen viimeinen sävel (d) jää soimaan


filli 1
E|---------|
B|---------|
G|---------|kitara 1
D|---------|* = volume kasvaa
A|-*---*---|
E|-7---5---|



riffi 2
E|-----------------------------------------------------------------|
B|-----------------------------------------------------------------|
G|-----------------------------------------------------------------| kitara
1
D|---------------------8---7-7h8p7---------------------8---7-7h8p7-|
A|-7---------------8---------------7---------------8---------------|
E|-----------------------------------------------------------------|
 |								   |
E|-----------------------------------------------------------------|
B|-----------------------------------------------------------------|
G|-----------------------------------------------------------------| kitara
2
D|-7---------------------------------------------------------------|
A|-7---7-7-7-7-7-7-8-8-8-8-8-8-8-8-7-7-7-7-7-7-7-7-8-8-8-8-8-8-8-8-|
E|-5---5-5-5-5-5-5-6-6-6-6-6-6-6-6-5-5-5-5-5-5-5-5-6-6-6-6-6-6-6-6-|
       . . . . . . . . . . . . . . . . . . . . . . . . . . . . . .

E|---------------------------------------------------------------------------------|
B|---------------------------------------------------------------------------------|
G|---------------------------------------------------------------------------------|
kitara 1
D|-5-------------------------------5--------------4----------------2---------------|
A|----------------3----------------------------------------------------------------|
E|---------------------------------------------------------------------------------|
 |										   |
E|---------------------------------------------------------------------------------|
B|---------------------------------------------------------------------------------|
G|---------------------------------------------------------------------------------|kitara
2
D|-----------------5-5-5-5-5-5-5-5-----------------4-4-4-4-4-4-4-4-2-2-2-2-2-2-2-2-|
A|-5-5-5-5-5-5-5-5-3-3-3-3-3-3-3-3-5-5-5-5-5-5-5-5-2-2-2-2-2-2-2-2-0-0-0-0-0-0-0-0-|
E|-3-3-3-3-3-3-3-3-----------------3-3-3-3-3-3-3-3---------------------------------|
   . . . . . . . . . . . . . . . . . . . . . . . . . . . . . . . . . . . .
. . . . 


riffi 3 (Jostain syystä en jaksa kiinnittää tähän riffiin kunnolla
huomiota, eli mokia on.
         Kitara 1 välillä demppaa, välillä ei.)
E|------------------------------------------------------------------------|
B|------------------------------------------------------------------------|
G|------------------------------------------------------------------------|
kitara 1
D|-7-7-7-7-7-7-7-7-5-5-5-5-5-5-5-5----------------------------------------|
A|-5-5-5-5-5-5-5-5-3-3-3-3-3-3-3-3-7-7-7-7-7-9-7-6-6-6-6-6-6-6-6-6--------|
E|------------------------------------------------------------------------|
 |									  |  4x
E|------------------------------------------------------------------------|
B|------------------------------------------------------------------------|
G|-7---------------5------------------------------------------------------|
kitara 2
D|-7---------------5---------------9--------------------------------------|
A|-5---------------3---------------7---------------6----------------------|
E|---------------------------------0---------------7----------------------|


riffi 4
E|---------------------------------|
B|---------------------------------|
G|---------------------------------| 6x
D|-----------------6-6-5-5-8-8-8-8-|
A|-8-8-8-8-7-7-7-7-4-4-3-3-6-6-6-6-|
E|-6-6-6-6-5-5-5-5-----------------|

riffi 2 ilman kitara kakkosta


riffi 5 (kitara 1 soittaa pelkkiä vitossointuja)
E|-----------------------------------------------------------------|
B|-----------------------------------------------------------------|
G|-5-5-5-5-5-5-5-5-7-7-7-7-7-7-7-7-5-5-5-5-5-5-5-5-7-7-7-7-7-7-7-7-|
D|-7-7-7-7-7-7-7-7-8-8-8-8-8-8-8-8-7-7-7-7-7-7-7-7-8-8-8-8-8-8-8-8-|
A|-7-7-7-7-7-7-7-7-8-8-8-8-8-8-8-8-7-7-7-7-7-7-7-7-8-8-8-8-8-8-8-8-|
E|-5-5-5-5-5-5-5-5-6-6-6-6-6-6-6-6-5-5-5-5-5-5-5-5-6-6-6-6-6-6-6-6-|

E|---------------------------------------------------------------------------------|
B|-----------------5-5-5-5-5-5-5-5-------------------------------------------------|
G|-4-4-4-4-4-4-4-4-5-5-5-5-5-5-5-5-4-4-4-4-4-4-4-4-4---------------2---------------|
D|-5-5-5-5-5-5-5-5-5-5-5-5-5-5-5-5-5-5-5-5-5-5-5-5-4---------------2---------------|
A|-5-5-5-5-5-5-5-5-3-3-3-3-3-3-3-3-5-5-5-5-5-5-5-5-2---------------0---------------|
E|-3-3-3-3-3-3-3-3-----------------3-3-3-3-3-3-3-3---------------------------------|


riffi 3  x4 (neljännellä kerralla loppuu E:hen)




(Päivitetty 01.04.2000)


Muokkaa tabulatuuria »