CMX : Tabulatuurit : Veljeskunta

riffi 1
E|---------------------------------------------------------|
B|---------------------------------------------------------|
G|-6-6-6-6-6---6-6-6-6-9---9---3-3-3-3-3---2-2-2-2-4---4---| 4x  
D|-7-7-7-7-7---7-7-7-710--10---4-4-4-4-4---3-3-3-3-5---5---| 
A|-7-7-7-7-7---7-7-7-710--10---4-4-4-4-4---3-3-3-3-5---5---|
E|-5-5-5-5-5---5-5-5-5-8---8---2-2-2-2-2---1-1-1-1-3---3---|

E|----------------------------|
B|----------------------------|
G|----------------------------| kitara 1 soittaa tätä riffi 1 päälle 
D|-7------14---11------12---8-| toisen kerran jälkeen
A|----------------------------|
E|----------------------------|


 riffi 2
E|---------------------------------------------------------------------|
B|---------------------------------------------------------------------|
G|------------------------------------6--------------------------------|
kitara 1
D|-7----------------------------------6--------------------------------|
A|-7----------------------------------4--------------------------------|
E|-5-------------------------------------------------------------------|
 |								       |
E|---------------------------------------------------------------------|
B|---------------------------------------------------------------------|
G|---------------------------------------------------------------------|
kitara 2
D|-*-----------------------------------6-6-6-6-6-6-6-6-6-6-6-6-6-6-6-6-|
A|-7---7-7-7-7-7-7-7-7-7-7-7-7-7-7-7-7-4-4-4-4-4-4-4-4-4-4-4-4-4-4-4-4-| *
= vain ensimmäisellä
E|-5---5-5-5-5-5-5-5-5-5-5-5-5-5-5-5-5---------------------------------|   
 kerralla, toisilla
       . . . . . . . . . . . . . . . . . . . . . . . . . . . . . . . .   3x
 kerroilla demppaus
E|---------------------------------------------------------------------|
B|---------------------------------------------------------------------|
G|-------------------------------------7-------------------------------|
kitara 1
D|-4-----------------------------------7-------------------------------|
A|-4-----------------------------------5-------------------------------|
E|-2-------------------------------------------------------------------|
 |								       |
E|---------------------------------------------------------------------|
B|---------------------------------------------------------------------|
G|---------------------------------------------------------------------|
kitara 1
D|-------------------------------------7-7-7-7-7-7-7-7-7-7-7-7-7-7-7-7-|
A|-4-4-4-4-4-4-4-4-4-4-4-4-4-4-4-4-4-4-5-5-5-5-5-5-5-5-5-5-5-5-5-5-5-5-|
E|-2-2-2-2-2-2-2-2-2-2-2-2-2-2-2-2-2-2---------------------------------|
   . . . . . . . . . . . . . . . . . . . . . . . . . . . . . . . . . .

 filli 1
E|-----------------|
B|-----------------|
G|-7---6-----------|
D|-7---6---7---6---|
A|-5---4---7---6---|
E|---------5---4---|

  riffi 3
E|-----------------|
B|-----------------|
G|-----------------| 12x
D|-----------------|
A|-4-4-4-4---2-2---|
E|-2-2-2-2---0-0---|
   . . . .   . . 
E|----------------------------------|
B|----------------5-----------------|
G|-3-1--------3---6---3-1-----------| kitara 1 soittaa tätä riffin 3
päälle
D|-----4-2----------------4-2---4---| 4. kerran jälkeen
A|------------------------------4---|
E|------------------------------2---|

riffi 4
E|-----------------|
B|-----------------|
G|-8-8-8-8---6-6---| 4x 
D|-9-9-9-9---7-7---| 
A|-9-9-9-9---7-7---| 
E|-7-7-7-7---5-5---|

riffi 3 + plus kitara ykkösen kikkailu  4x


filli 2
                       
E|-16----------16-------|
B|----15----15----15----|
G|-------14----------14-|
D|----------------------|
A|----------------------|
E|----------------------|
 |  			|
E|-17----------17-------|
B|----16----16----16----|
G|-------15----------15-|
D|----------------------|
A|----------------------|
E|----------------------|



riffi 5 
E|-----------------------------------------------------------------|
B|-----------------------------------------------------------------|
G|-9-9-9-9-9-9-9-9---------------------------------6-6-6-6-7-7-7-7-| 4x
D|-9-9-9-9-9-9-9-91010101010101010-7-7-7-7-7-7-7-7-6-6-6-6-7-7-7-7-|
A|-7-7-7-7-7-7-7-71010101010101010-7-7-7-7-7-7-7-7-4-4-4-4-5-5-5-5-|
E|-----------------8-8-8-8-8-8-8-8-5-5-5-5-5-5-5-5-----------------|


riffi 1  3.5x (alkaa jo C:stä)
riffi 2  4x
filli 1
riffi 3  12x
riffi 4  4x
riffi 3  4x
filli 2
riffi 5  4x 

riffi 6
E|---------------------|
B|---------------------|
G|------------8------8-|kitara 1
D|------------7------7-|
A|-4---4------9------9-|
E|-2---2-xxx-----------|
 |		       | 16x
E|---------------------|
B|----------------*--*-| * = venyttää hieman 
G|----------------2--2-| 
D|------------2--------| kitara 2
A|-4--------4----------|
E|-2-------------------|


paitsi 8. kerran jälkeen kitara 1 soittaa tälleen
E|---------------------|
B|-11--11\9------------|
G|-11--11\9---8------8-|
D|-11--11\9---7------7-|
A|------------9------9-|
E|---------xxx---------|













(Päivitetty 28.03.2000)


Muokkaa tabulatuuria »