CMX : Tabulatuurit : Taivas ja Helvetti

riffi 1
E|--------------------|
B|--------------------|
G|-4---2---5---4------| kitara 1 käyttää hieman vibrakampea
D|-5---4---7---5------| ja kitara 2 pitää melua
A|--------------------| 
E|--------------------|


riffi 2
E|----------------------------------|
B|----------------------------------|
G|-4-4444442-2222225-5555554-444444-| sama tässä paitsi kitara 1 soittaa
ilman vibrakampea
D|-5-5555554-4444447-7777775-555555-| x4
A|----------------------------------| 
E|----------------------------------|

laulu ja basso muttei kitaraa :-(

rifffi 2  x4

riffi 3
E|----------------------------------|
B|----------------------------------|
G|----------------------------------| x4
D|-55555555777777775555555544444444-|
A|-77777777888888887777777755555555-|
E|----------------------------------|


riffi 4
E|-------------------------------------------------------------------|
B|-------------------------------------------------------------------|
G|-4-4444442-2222220-000000------------------------------------------|
D|-5-5555554-4444442-2222224-4444442-2222222222222224444445577775544-|
A|-------------------------5-5555553-3333333333333335555555555555555-|
E|-------------------------------------------------------------------|
									x2
E|-------------------------------------------------------------------|
B|-------------------------------------------------------------------|
G|-4-4444442-2222220-000000------------------------------------------|
D|-5-5555554-4444442-2222224-4444442-2222233555533224444445577775544-|
A|-------------------------5-5555553-3333333333333335555555555555555-|
E|-------------------------------------------------------------------|


riffi 5
E|---------------------------------------------------|
B|---------------------------------------------------|
G|---------------------------------------------------|
D|---5-----5------7-----7-----5-----5------7-----9---|
A|-7-----7---7-/9-----9---9-7-----7---7-/9-----7---7-|
E|---------------------------------------------------|
							x2 mutta toisella kerralla 
E|---------------------------------------------------|     dempattuna ja
ilman slideä
B|---------------------------------------------------|
G|---------------------------------------------------|
D|-----9------9--------10------10------5-------------|
A|-/10-----10---10-/12------12----12-7-----7-5---/7--|
E|---------------------------------------------------|

riffi 2  x4
riffi 4  x2

loppusointu 
E|-----|
B|-----|
G|-----|
D|--9\-|
A|-10\-|
E|-----|

Kerrassaan mainio kappale!

(Päivitetty 18.03.2000)


Muokkaa tabulatuuria »