CMX : Tabulatuurit : Pilvien kuningas

riffi1
E|-----------7-7-7-7-x---7---|
B|-----------8-8-8-7-x10-7---| (Suunnilleen tälleen tämä riffi 
G|-----------7-7-7-7-x-9-7---|  menee kappaleen aikana, pieni 
D|-----------9-9-9-9-x-7-----|  muutoksia saattaa olla ja toinen  
A|---------------------------|  kitara tulee jossain vaiheessa 
E|-5-6-7-0-------------------|  soittamaan samaa säröllä)

soita jonkun aikaa riffi 1 mutta
välissä soita cmaj7 eli E|-0-|	
			B|-0-|
			G|-0-|
			D|-2-|
			A|-3-|
			E|---|

filli 1
E|--------0----------------------|
B|--------1----------------------|
G|-----0--0-jne...---------------|
D|---4----2--------------0-------|
A|-5------3----------012---2-1-0-|
E|-------------------------------|


riffi 2
E|-------------------------------------|
B|-0---3-3---2---4-4---0---3-3---2---1-| 
G|-0---4-4---2---4-4---0---4-4---2---2-|
D|-2---5-5---2---4-4---2---5-5---2---2-|
A|-2---5-5---0---2-2---2---5-5---0---0-|
E|-0-------------------0---------------|

riffi 2 aikana taustalla soiva kitara (en ole täysin varma tästä
osasta)
E|-------------------------------------5-----5-----5-----5---------------|
B|---8-----8-----8-----8-----8-----------5-----5-----5-----5-------------|
G|-----9-----9-----9-----9-----9-----6-----6-----6-----6-----6---8-9-----|

D|-9-----9-----9-----9-----9-----9---------------------------------------|
A|-----------------------------------------------------------------------|
E|-----------------------------------------------------------------------|

E|-------------------------------------5-----5-----5---5-----5-----------|
B|---8-----8-----8-----8-----8-----------5-----5---------5-------5-7-----|
G|-----9-----9-----9-----9-----9-----6-----6-----6---5-----5-------------|
D|-9-----9-----9-----9-----9-----9---------------------------------------|
A|-----------------------------------------------------------------------|
E|-----------------------------------------------------------------------|




riffi 3
E|---------------------|
B|---------------------|
G|---------------------|
D|---------------------| 
A|-------7-----7---7-7-|
E|-0---0-----0---0-----|

E|---7---------------------|
B|10-8---8-7---7-5---5-5---|
G|-9-9---9-7---7-5---5-4---|
D|11-----9-7---7-5---5-2---|
A|-------------------------|
E|-------------------------|


Kysymykset/kommentit osoitteseen tuomas.ronkko@pp.inet.fi

(Päivitetty 18.03.2000)


Muokkaa tabulatuuria »