CMX : Tabulatuurit : Linnunhammas

Intro:
E-----------------------------------------------------------------
H-----------------------------------------------------------------
G-----------------------------------------------------------------
D-----------------------------------------------------------------
A--0--3--0--3--0--3--0--3--0--3--0--3--0--3--0--3--0--3--0--3--4--
E-----------------------------------------------------------------

D | G | A | F | x3            
	    E--------------------------
            H--------------------------           
            G--------------------------
            D---0--2--3--3--2----------            
            A------------------3--0----
            E--------------------------
 
D | G | F |

 A5 F5 E5 G5 E5 F5 x4


 patosivat tämän joen...
E----------------------------------------------------------------
B----------------------------------------------------------------
G----------------------------------------------------------------
D------------------*****-----------------------------------------
A----7-------3-----5---5-------2-----3---------------------------
E-5-------1-------3--3------0-----1------------------------------
		   * = vaihteelee toisilla kerroilla hitusen
 
merkkinä siitä arpi tässä...
E----------------------------------------------------------------
B----------------------------------------------------------------
G---------------------------------------------------------------- x2
D----------------------7---10--9---------------------------------
A-0---3--5---/8--7------------------8--7\------------------------
E----------------------------------------------------------------

 joka on niin syvä täällä...
E--------------------3-------------------------------------------
B-------6-------5-------5----------------------------------------
G-5p4---------5--------------------------------------------------
D-----7-----7----------------------------------------------------
A----------------------------------------------------------------
E----------------------------------------------------------------


A5 F5 E5 G5 E5 F5
patosivat tämän joen
kun olin vielä pieni
pienen pieni syntymätön
piste solujen saatossa
merkkinä siitä arpi tässä
ja kaulalla linnunhammas
kädessä sauva sileää puuta
ja silmissä pitkä katse
E5 F5 E5 G5 C#5

Kerto:
D       G       A          F    
virtaan alkuvesien heittäydyn ja kuljen
aina virran mukaan alas vesiin lämpimiin
kohtuun merten vanhain kehtoon vuoksien
D     G       F          A
eikä padottua tätä vettä saa

E G E G E G E G E G x4

A5 F5 E5 G5 E5 F5
luona hiljaisten koskien
luona siipien iskun
kurotan kohti veden pintaa
kurotan päin yötaivasta
joka on niin syvä täällä
sinne ei parane pudota
koettaa hyvää onneaan
kosken voimaa vastaan
E5 F5 E5 G5 C#5

Dm    G            Am7          F
tulee aamu taaskin valon kehrä kiertää kiven
jos kohta varjot lankee lankee ne jotta valo näkyisi
paremmin kirkassilmän katsoa kauneutta
Dm        G          F
koreutta maanpiiriin humalluttavaa

intron kautta kertosäkeeseen



Pari korjausta ja lisätty muutamaosa säkeistöihin. Muuten en ole nuottia
muuttanut,
ainakaan tarkoituksella...

Tuomas Rönkkö



(Päivitetty 11.03.2000)


Muokkaa tabulatuuria »