CMX : Tabulatuurit : Tulikiveä

Tulikiveä

E----------------------------------------------------------------
B-----------------3-------------------------------2--------------
G---------0-----------0-------------------2-----------2----------
D-----0-------0-----------0-----------2-------2-----------2------
A-1---------------------------1---0---------------------------0--
E----------------------------------------------------------------

riffi 1 (e-bow soi taustalla vaimeasti)
E----------------------------------------------------------------
B-----------------1----------------------------------------------
G---------0-----------0-------------------0-------2---0----------
D-----2-------2-----------2-----------2-------0-----------2---0--
A-3---------------------------3---2------------------------------
E----------------------------------------------------------------
                                                                    x 4
E----------------------------------------------------------------
B-----------------3-------------------------------2--------------
G---------0-----------0-------------------2-----------2----------
D-----0-------0-----------0-----------2-------2-----------2------
A-1---------------------------1---0---------------------------0--
E----------------------------------------------------------------
riffi 1 loppu
E--------------------------------
B-----------------2--------------
G---------2-----------2----------
D-----2-------2-----------2------
A-0---------------------------0--
E--------------------------------

riffi 2
E--------------------------------------------------------------------------------
B--------------------------------------------------------------------------------
G---------4---------------4---------------4---------------4---------------4------
D-----5-------5-------5-------5-------5-------5-------5-------5-------5-------5--
A-7---------------7---------------7---------------7---------------7--------------
E--------------------------------------------------------------------------------
               									    x 2
E--------------------------------------------------------------------------------
B-----------------------------3-------3-----------------------3-------3----------
G---------4---------------0-------0-------0---------------0-------0-------0------
D-----5-------5-------4-----------------------4-------4-----------------------4--
A-6---------------5-------------------------------5------------------------------
E--------------------------------------------------------------------------------
 
 (E-bow kitara sovituksena. Soi riffi 1 kanssa riffi 2 jälkeen.
 Soi myös molemmissa säkeistössä laulun aikana mutta vaimeasti. 
 Ajoitus muuttuu aika ajoin mutta tässä on kuitenkin oikeat sävelet.
 Minun Les Paulin saa kuulostamaan samalta kun laittaa säröä ja kytkee
 molemmat mikit päälle. Pieni delay sopii myös hyvin)
E---------------------------------------------------------------
B-13------12----13----15--------13------12-----10---------------
G---------------------------------------------------------------
D---------------------------------------------------------------
A---------------------------------------------------------------
E---------------------------------------------------------------

riffi 1   x 6 (e-bow soi mukana)
riffi 2   x 2

riffi 3
E---------------------------------------------------------------
B---------------------------------------------------------------
G---------4---------------4---------------4---------------4-----
D-----5-------5-------5-------5-------5-------5-------5-------5-
A-7---------------7---------------6---------------6-------------
E---------------------------------------------------------------
                                                                    x 2
E---------------------------------------------------------------
B---------------------------------------------------------------
G---------7---------------7---------------6---------------6-----
D-----4-------4-------4-------4-------7-------7-------7-------4-
A-5---------------5---------------4---------------4-------------
E---------------------------------------------------------------
                                  ******************************
				   (toista toisella kerralla)

riffi 4 (en ole ollenkaan varma tästä osasta, en jaksanut keskittyä
kunnolla)
E-----------------0-------------------------------0-------------
B---------------------1-------1-----------------------1-------1-
G---------2---------------0-----------*----0---------------0----
D-----2-------2-----------------------2-------2-----------------
A-0-------------------------------2-----------------------------
E---------------------------------------------------------------
				      * = saattaa olla myös 0, mene ja tiedä...
E-----------------0---------------------------------------------
B---------------------1-------1---------------1---------------1-
G---------0---------------0---------------0-----------*---0-----
D-----2-------2-----------------------2---------------2---------
A-3-------------------------------3---------------2-------------
E---------------------------------------------------------------
						      * = voi olla 0     
E-----------------0-------------------------------0-------------
B---------------------1-------1-----------------------1-------1-
G---------2---------------0-----------*----0---------------0----
D-----2-------2-----------------------2-------2-----------------
A-0-------------------------------2-----------------------------
E---------------------------------------------------------------
				      * = saattaa olla myös 0
E-----------------0---------------------------------------------
B---------------------1-------1---------------1---------------3-
G---------0---------------0---------------0---------------2-----
D-----2-------2-----------------------2---------------4---------
A-3-------------------------------3---------------5-------------
E---------------------------------------------------------------

(e-bow sovitettuna kitaralle. Soi riffi 4 kanssa)
E-------------------------------------------------------------------
B-13------12---------------------13------12-------------------------
G-----------------12------9----------------------12------9---11---9-
D-------------------------------------------------------------------
A-------------------------------------------------------------------
E-------------------------------------------------------------------

riffi 3    x 2
riffi 4    

En tehnyt täysin tarkkaa työtä eli jos joku sävel soitettiin 
sadallaviidennellätoista kerralla toisella tavalla niin semmoiset kohdat
minä kylmän viileesti jätin huomioimatta. 
Jos löytyy mokia tai on jotain kysymistä/kommenttia niin tähän 
osoitteseen voi lähettää postia: tuomas.ronkko@pp.inet.fi
                                 
			

(Päivitetty 11.03.2000)


Muokkaa tabulatuuria »