CMX : Tabulatuurit : Pyörivät sähkökoneet

riffi1:   4 kertaa   (dempattuna joistain kohti, kuuntele levyä)
E-------------------------------------------------------------------------------------
H-------------------------------------------------------------------------------------
G-----------------------------5---5-5-5-5-5-5-----------2---2-2-2-2-2-2-7--7-7-7-7-7-7
D------------2---2-2-2-2-2-2--5---5-5-5-5-5-5-----------2---2-2-2-2-2-2-7--7-7-7-7-7-7
A------------2---2-2-2-2-2-2--3---3-3-3-3-3-3--3--2--1--0---0-0-0-0-0-0-5--5-5-5-5-5-5
E---3--2--1--0---0-0-0-0-0-0----------------------------------------------------------

viimeisellä kierroksella soita D:tä vähän pitempään kunnes:

riffi2:   4 kertaa    (toinen kitara soittaa "sooloa")
E---------------------------------------------------
H---------------------------------------------------
G---7---7--------5---5----------------------------5-
D---7---7----5---5---5---3---5---5---3---5---5----5-
A---5---5----5---3---3---3---5---5---3---5---5----3-
E------------3-----------1---3---3---1---3---3------

sitten dempattuna seuraava:
E------------------------------------------------------------------
H------------------------------------------------------------------
G---7-7-7-7-7-7-7-7-5-5-5-5-5-5-5-5--------------------------------
D---7-7-7-7-7-7-7-7-5-5-5-5-5-5-5-5-5-5-5-5-5-5-5-5-5-5-5-5-5-5-5-5
A---5-5-5-5-5-5-5-5-3-3-3-3-3-3-3-3-5-5-5-5-5-5-5-5-5-5-5-5-5-5-5-5
E-----------------------------------3-3-3-3-3-3-3-3-3-3-3-3-3-3-3-3
Soitapa vielä H ja F# (duurit). Ne 3 kertaa sitten dempattuna C#5
Ja vielä riffi1 ja siinä se.



Pyörivät sähkökoneet soolo

E--------------------------------------------------------------------------------------
H---------------------------------*----------------------------------------------------
G-----------10-10~-----10-12b14--14---12p10---10~---12br14-12-10----10~-------------10-
D-12~--10-12--------12---------------------12--------------------12------12-10~--12----
A--------------------------------------------------------------------------------------
E--------------------------------------------------------------------------------------
				  * = pidä kieltä edelleen venytettynä
				      mutta saattaa myös olla 12b14 nopeasti

E-----*---------------------------------------------------------------------------------
H-13b15-13--------------------------------------**---**---**----**-**-**-**--*-----------
G----------14-12-12b13-12---------------12b13---13---13---13----13-13-13-13-13br12------
D-------------------------12-15---12-15--------------------------------------------12~--
A---------------------------------------------------------------------------------------
E---------------------------------------------------------------------------------------
 * = ihan kuin venyttäisi                    ** = venytä edelleen
kieltä
     liian pitkälle... :-)                       * = vapauta kieli

b = venytä merkittyyn säveleen
br= venytä merkittyyn säveleen ja vapauta takaisin
~ = vibraatto
p = pull-off eli suomeksi iske sävel ja vedä sormi 
    kieleltä että toinen sävel jää soimaan, kyllä te tiedätte

Siinä olisi hieman sooloa, muuten en ole nuottiin koskenut. Jos ja kun
löydätte mokia 
niin ilmoitelkaa tämmöseen osoitteeseen kuin tuomas.ronkko@pp.inet.fi
Muuta kommenttia/kysymyksiä saa myös lähettää.

Tuomas



Tuon kolmannen riffin jälkeen soitetaan H ja F# näin kolme kertaa:

E-------2---------------2---
H---------4-----------2-----
G---4-------4-------3-------
D---4-----------4-----------
A---2-----------4-----------
E---------------2-----------

Ja tämä ennen kertosäettä, eli ykkösriffiä:

E---------------------------
H---------------------------
G---5-5-5-5-5-5-5-5-5-5-5-5-
D---5-5-5-5-5-5-5-5-5-5-5-5-
A---3-3-3-3-3-3-3-3-3-3-3-3-
E---------------------------

Tabitin nuo kaksi lisäykseksi Tuomaan tabulatuuriin.

-D. Ahma

Tuo C5 ennen kertosäettä on väärin. Se on nimittäin C#5 niinkuin
aikaisemmin
on jo mainittu

(Päivitetty 09.03.2000)


Muokkaa tabulatuuria »