CMX : Tabulatuurit : Aivosähköä

Aivosähköä

e -------------------------         e -------------------------
H -------------------------         H -------------------------
G -------------------------   x3    G -------------------------
D -------------------------         D -------------------------
A -------------3-1-3-1-3-1-         A -------------------------
E -3-5-5-3-5---------------         E -3-5-5-3-5---3-5-5-3-5---


Riffi1:
e ---------------------------------
H ---------------------------------
G ---------------------------------   x2
D ---------------------------------
A -------------------------3-5-----
E -3-5-5-3-5-5-3-5-5-3-5-3-----1-1-

laulun aikana toinen kitara soittaa A5, ja toinen soittaa riffi1
dempattuna


Kerto:
e -------------------------------------------------
H -------------------------------------------------
G ---------------7---------------------------------   x2   ...ja
aivosähköä
D -7-------------7------------8-------------5------
A -7-------------5------------8-------------5------
E -5--------------------------6-------------3------
   ajattelen     aikaa________aa, ajattelen aikaa

Filli:                                      
e
-------------------------------------------------------------------------
H
-------------------------------------------------------------------------
G
------(6)----5-4(3)-------(6)----5-4(3)-------(6)----5-4(3)-------(6)--7-
D
-2-5-6-7---7-5-4-4---2-5-6-7---7-5-4-4---2-5-6-7---7-5-4-4---2-5-6-7---7-
A
-2-5-6-7---7-3-2-4---2-5-6-7---7-3-2-4---2-5-6-7---7-3-2-4---2-5-6-7---5-
E
-0-3-4-5---5-----2---0-3-4-5---5-----2---0-3-4-5---5-----2---0-3-4-5-----
 sulkeissa olevia nuotteja on aika vaikea kuulla mutta olen varma ne on
oikein

 väliosa
e |-----------------------------------------------
H |-----------------------------------------------
G |-------------7-9------------------------------- kitara 1  
D |---------7-9-----7-9---------------------------
A |-----7-9-------------7-9-----------------------
E |-7-9-------------------------------------------
  |                                                  x3
e |-----------------------------------------------
H |-----------------------------------------------
G |-------------3-5------------------------------- kitara2
D |---------3-5-----3-5---------------------------
A |-----3-5-------------3-5-----------------------
E |-3-5-------------------------------------------



e |-----------------------------------------------
H |-----------------------------------------------
G |-7-9----------7-9------------------------------ kitara 1
D |-----7-9----------7-9--------------------------
A |---------7-9----------7-9----------------------
E |-----------------------------------------------
  |
e |-----------------------------------------------
H |-----------------------------------------------
G |-3-5-------------3-5--------------------------- kitara 2
D |-----3-5-------------3-5-----------------------
A |---------3-5-------------3-5-------------------
E |-------------3-5-------------3-5---------------

e
------------------------------------------------------------------------------

H
------------------------------------------------------------------------------
G
------------------------------------------------------------------------------
D
------------------------------------------------------------------------------
A
-1--3--1--3--1--3--1--3--1--3--1--3--1--3--1--3--1--3--1--3--5--5--5--8--8--8-
    
E
------------------------------------------------------------------------------

Nuotiotulen valossa / eräällä rannalla / kuulen äänesi / kuulen kaikki
äänesi
G5          A#5     G5  E5 F5 F#5 G5ja on tuskallisen selvää
G5          A#5     G5  E5 F5 F#5 G5tämä on uni ja houre / nämä
G5          A#5     G5  E5 F5 F#5 G5matkat ovat pitkät / pimeät
G5          A#5     G5  E5 F5 F#5 G5yksinäisyydet kulkea

Riffi 1

Säkeistö (demppaava kitara kikkailee jonkun verran)

(yölamppuni valossa
tutkin jonkun toisen itseä
Sinun Vittujesi hiljaiset luolat
liha uhmaa aikaa)

Kerto
(liha uhmaa aikaa / ja aivosähköä)

Loppu: Dm Bm Gm Bb C x4 
       D  Bm Gm Bb C x4  

loppu				    1. ja 3. kerta        2. kerta       4.           
E|------------------3------6------|----------------------|--------------|-------------|
B|-6------5-6-------3--------3----|-3---6---8---8/10\8\6-|3---6-3---3---|-6---8---7---|
G|-7---------7------3----------3--|-3--------------------|3-------3-----|-------------|
D|-0------------------------------|----------------------|--------------|-------------|
A|--------------------------------|----------------------|--------------|-------------|
E|--------------------------------|----------------------|--------------|-------------|

E|----------------------------------|
B|----------------------------------|
G|----------------------------------|
D|----------------------------------|
A|-5---\2-------1---/3---/5-jne...--|
E|----------3-----------------------|




(Päivitetty 09.03.2000)


Muokkaa tabulatuuria »