CMX : Tabulatuurit : Ainomieli

Ainomieli
Intro:C | C | F | G# | C | C7 | F | G#
E----------------------------------------------------------------------- 
H--8--6--5h6-5~---------------------------------------------------------
G----------------------------------------------------------------------- 
D--------------------------------------------5/7\5-2~~------------------
A-------------------------3---3/5\2-0-----------------------------------
E-----------------------------------------------------------------------

 esineet liikkuu kun ei katsele...
E------3----------0----------------------------------------------------- 
H---------------3-3----3---5------5---5-------5------5---5--------------
G-2p0---------5--------------4------4-----------4------4----------------
x2
D------------------------2--------------2------------------------------- 
A-----3----------------------------------------------------------------- 
E----------------------------------------------------------------------- 

  alhaalla holvissa henget istuvat...       ****(vaihtelee hieman)
E----------------------------------------------------------------------- 
H-------------------------------------------*****----------------------- 
G-9-999-997-9-99999-999-997-9-99999-999-997-99999---10-10-10-10-10-10--- 
x3
D-----------------------------------------------------------------------
A-----------------------------------------------------------------------
E-----------------------------------------------------------------------

 (en ole varma tästä lopusta)
E----------------------------------------------------------------------- 
H----------------------------------------------------------------------- 
G-9-999-997-9-779999779999779999779999779999779999-9999999999999999999--
D-----------------------------------------------------------------------
A-----------------------------------------------------------------------
E-----------------------------------------------------------------------

 minä laulan tähän kauneuden...
E------------------------5-4-------------------------------------------- 
H----------------------------5-4---------------------------------------- 
G-----2---4h5-4~-----------------5-4------------------------------------
D------------------------------------5-4------------2h5-2~--------------
A----------------------------------------5-4----------------------------
E--------------------------------------------7-5-7----------------------

 leikkaan hiuksesi ja kyntesi...
E----------------------------------------------------------------------- 
H----------------------------------------------------------------------- 
G-99999999999999999999999999999999999999999999999999-10-10-10-10-10-10--
x3
D-----------------------------------------------------------------------
A-----------------------------------------------------------------------
E-----------------------------------------------------------------------

                                                           * venytä 1/4
ylöspäin
E----------------------------------------------------------------9*----- 
H--------------------------------------------------101010101010-10*----- 
G-9999999999999912121212121212999999912121212121212---------------------
D-----------------------------------------------------------------------
A-----------------------------------------------------------------------
E-----------------------------------------------------------------------

 viimeinen kertosäe
E-1212--8~----12--8~---------8--13--11----10~----8h10-8----------------- 
H--------------------8--10---------------------------------------------- 
G-----------------------------------------------------------------------
D-----------------------------------------------------------------------
A-----------------------------------------------------------------------
E-----------------------------------------------------------------------

C        Am         Em
Ei vallankumouksesi hedelmät
pitele  käsistäsi enää tiukasti
esineet liikkuu kun ei katsele
nauruun vääntyy manan suu

C        Am             Em       F
alhaalla holvissa henget istuvat  
kuunnellen viestejä niin syvältä ja kaukaa
vielä saatan sinuun katsoa 
kahden maailman rajalla missä joki seisoo 

Kerto:
C                                     F          G#
älä sano ei, älä puhu älä mene, vielä hengitä ja viimeiseen asti
pidä sanasi pidä kivi jota kannat mene huoneeseen, jossa hän lepää
kukkien,
älä sulje silmiäsi pimeyteen (sanokaa minun puhuneen)

F C | G# C# F# | x4

C     Am          Em
minä laulan tähän kauneuden
suhteeksi tyhjyyksien välille
minä taivuttelen kädet rinnallesi
planeettojen alla liikkuu yö
C        Am          Em       F
leikkaan hiuksesi ja kyntesi
valvon yöni suojellen oveasi heiltä
ilmeet taiteltuina samettiin
uivat aikakaudet mutaiseen virtaan



(Lisäsin alkuperäiseen versioon muutaman riffin ja korjasin introa.
Jos on jotain epäselvyyksiä nuotin kanssa tai on muuta
kysymistä/kommenttia, niin
minulle voi lähettää e-mailia tähän osoitteeseen
tuomas.ronkko@pp.inet.fi)


(Päivitetty 09.03.2000)


Muokkaa tabulatuuria »