CMX : Tabulatuurit : Vanha talvitie

Intro + Säe : Parhaan tuloksen saat kun kuuntelet levyltä biisiä kun
soitat!!!
   6x            8x        

b= bend

e---------------------------------I I
b---------------------------------I I
g---------------------------------I I
d-------------------------9-------I I
a------9b--7-9--10------7---------I I
e-------------------7-8-----------I I

Ennen kertsiä basisti huom:

G-*-*-*-*-*-*-
D-------------
A------h--2---
E-2-2-2-5---0-

Kertosäe :  G  |  Em  |  Hm  |  C  |     4x
Kertosäkeen loppufilli

e--------------------------------------------------------------------------------------------------------------------------------I
I
b--------------------------------------------------------------------------------------------------------------------------------I
I
g------------------------9------------------------------------------------------------------------------------------------------I
I
d----------------7--------------------------------------------------------------------------------------------------------------I
I
a--------4/-5--5-----7---------------------------------------------------------------------------------------------------------I
I
e--------------------------------------------------------------------------------------------------------------------------------I
I

 
Kertosäkeen jälkeen alkaa 2.säkeen mukana menevä filli.
                                   
                       H= harmonic
e------12-----5---8--------------------12h---------------3--------5----8----------------------3-5-3-----------------------I
I
b-----------------------8-8--------------------12h----------------------------------------5----------------------------------I
I
g-------------------------------------------------------------------------------------------------------------------------------I
I
d-------------------------------------------------------------------------------------------------------------------------------I
I
a-------------------------------------------------------------------------------------------------------------------------------I
I
e-------------------------------------------------------------------------------------------------------------------------------I
I

 
e-----8---7---------------------------3-5-3----------------------3-5-3--------8---7------------------------3-5-3----------I
I
b--------------8---7--------5---------------------------5-------------------------------8----7-------5-----------------------I
I
g-------------------------------------------------------------------------------------------------------------------------------I
I
d-------------------------------------------------------------------------------------------------------------------------------I
I
a-------------------------------------------------------------------------------------------------------------------------------I
I
e-------------------------------------------------------------------------------------------------------------------------------I
I

 
Säkeen jälkeen tulee vielä yksi filli ennen kertosäettä 

Filli: 
              |1. maali              |2&3. maali |4.maali
|:E    G  E  F#m|(F#m) basson filli :|(F#m)     :|
E  F#m  E |-> Kertosäe

Tuon väliosion F#m on itseasiassa joku tälläinen
B-1-
G-2-
D-4-

Se basistin unelma voisi olla jotain täman tapaista:


G-*-*-*-*-*-*-*-*-*
D------h------p----
A--h--0-2-/5-3-2---
E-0-2------------2-

Ah ja taas on maailma parempi paikka!


(Päivitetty 20.02.2000)


Muokkaa tabulatuuria »