CMX : Tabulatuurit : Sametinpehmeä

     x  4     basso...          x  2
e------------------------------------------------------------
H------------------------------------------------------------
G-------7-----------------------------------------------------
D2--3--7-8----4--4--4--4------3--3--3--3-------------
A2--3--5-8----4--4--4--4------3--3--3--3-------------
E0--1----6---2--2--2--2------1--1--1--1-------------

           x  8                                ( x 2 ) x 3
e----------------------------------------------------------------------------
H----------------------------------------------------------------------------
G----------------------------------------------------------------------------
D----------------------------------------------------------------------------
A----------------------------------------------------------------------------
E-0-0-0-0-0-0-0-0--4-3-6-5------------0-2-3-0-4-3-0-1-2-0-2-3-0-4-3-0-1-2----


e----------------------------------------------------------------------
H----------------------------------------------------------------------
G----------------------------------------------------------------------
D-2------3-----7------8------------------------------------------------
A-2------3-----5------8----6-5---5-------------------------------------
E-0------1-----5------6--------7---7-6-2-3-----------------------------


       x  3
e----------------------------------------------------------------------
H----------------------------------------------------------------------
G----------------------------------------------------------------------
D----------------------4--4--4--4--------------------------------------
A-----5--------3-------4--4--4--4--------------------------------------
E--3-----3--4-----4----2--2--2--2--------------------------------------


(Päivitetty 26.01.2000)


Muokkaa tabulatuuria »