CMX : Tabulatuurit : Discoinferno

D-vire eli tiputa matala E alas D:eehen.

Riffi:


E:------------------------------------------------
H:------------------------------------------------
G:------------------------------------------------
D:-0-1-2-3-4-5-6-7-8-9-10-11-12-11-10-9-8-7-6-5-4-
A:-0-1-2-3-4-5-6-7-8-9-10-11-12-11-10-9-8-7-6-5-4-
D:-0-1-2-3-4-5-6-7-8-9-10-11-12-11-10-9-8-7-6-5-4-

E:------
H:------
G:------
D:3-2-1-
A:3-2-1-
D:3-2-1-

Väliriffi:

E:-------------------
H:-------------------
G:-------------------
D:-0-1-2-tauko-0-2-3-
A:-0-1-2-tauko-0-2-3-
D:-0-1-2-tauko-0-2-3-

Laulukohta:

E:----------------------------
H:----------------------------
G:----------------------------
D:----------------------------
A:----------------------------
D:-0-2-3-0-2-3-0-2-3-0-3h5p3--

Siinä.


(Päivitetty 04.01.2000)


Muokkaa tabulatuuria »