CMX : Tabulatuurit : Hyvä tahto

Viritys E;A;D;G;H;e

Intro
  Kitara 1
|-------------
|------6b-----
|-------------
|--2-2--------  x4
|--1-1--------
|--0-0--------

Riffi 1
  Kitara 1&2, Bassokin
|--------------------------------------------------------------------
|--------------------------------------------------------------------
|--7-7-7----------------------------------4---5--5--5--5-----
|--7-7-7---6---5-5-5-5----3-3-3---4---5--5--5--5-----          3x
|--5-5-5---6---5-5-5-5----3-3-3---2---3--3--5--5-----         
|-------------4---3 3-3-5----1-1-1--------------------------         

Riffi 2
  Basso
|-------------------------------------------------------------
|-------------------------------------------------------------
|--5-5-5-5--------------------------------2-3-3-3-3--           -  x12
|--------------4----3-3-3-3----1--1--1----------------

  Kitara 1 (aanet luotu kevyella feedbackilla)
|------------------------------------
|------------------------------------
|--7----------------------s10--------
|------------------------------------
|--5----------------------s8---------
|------------------------------------
                                       x6
|------------------------------------
|------------------------------------
|-s7--------------s8------s5---------
|------------------------------------  
|-s5--------------s6------s3---------
|------------------------------------

  Kitara 2 (tulee mukaan laulun yhtaaikaa laulun kanssa,
            alunperin taman soittaa koskettimet, en nae
            mitaan estetta ettei toinen kitara voisi hoitaa samaa)
|--10--10--10--10--10--10--10--10----
|------------------------------------
|------------------------------------
|------------------------------------
|------------------------------------
|------------------------------------

|--10--10--10--10--10--10--10--8-----
|------------------------------------
|------------------------------------
|------------------------------------
|------------------------------------
|------------------------------------

Prechorus  Riffi 3
  Kitara 1&2, mukana myos basso!
|------------------------------------
|------------------------------------
|------------------------------------
|------------------------------------  x3
|--5-5------------------2-3-3---3---
|--------4--3-3---0-1-1---------------

|------------
|------------
|------------
|--6-6-6-6---
|--4-4-4-4---
|------------

Chorus:
Sama kuin intro. Kummatkin kitarat ja basso veivaa samaa.
  


Soolo
  Kitara 1
|----------------------8---------
|--5---6---5---8---5---5---5-----
|--------------------------------
|--------------------------------  x3
|--------------------------------
|--------------------------------

|--------------------------------
|--5---6---5---6---5---6---5-----
|--------------------------------
|--------------------------------
|--------------------------------
|--------------------------------


  Kitara 2 ja basso
  Riffi 1

Syntikka soolo
  Kitara 1&2 kuten myos basso
  Riffi 2

Prechorus
  Kitara 1&2, basso
  Riffi 3

Chorus
  Kitara 1&2, basso
  Riffi 1

Outro
  Kitara 1&2, eras soitin (vihje:alkaa beella, loppuu oohon) D=dempattu
|--------------------------------
|--------------------------------
|--------------------------------
|--------------------------------  x4
|--4---x-x-4---4-4---x-x-4---4---
|--2---x-x-2---0-2---x-x-2---0---
       d d     d     d d     d

|-----------------------------------
|-----------------------------------
|-----------------------------------
|-----------------------------------  x4
|--4-4-x-x-4---4-4-4-----4---4-4----
|--2-2-x-x-2---0-2-2-x-x-2---0-2----
   d d d d     d d d         d d

|----------------------------------
|----------------------------------     Menee muutes
pilkunnussimi-meiningiksi...
|----------------------------------
|----------------------------------  x8
|--4-4-4-4-4---4-4---4-4---4-4-4---
|--2-2-0-0-2---0-2---0-2---3-2-2---

(Päivitetty 03.01.2000)


Muokkaa tabulatuuria »