CMX : Tabulatuurit : Marian ilmestys

Intro 2x:
E------------------------------------------------------------------
H------------------------------------------------------------------
G--------------------------4-4-4-4-------------------------4-4-4-4-
D--4-4-4-4-7-7-7-7-4-4-4-4-4-4-4-4-4-4-4-4-7-7-7-7-4-4-4-4-4-4-4-4-
A--4-4-4-4-7-7-7-7-4-4-4-4-2-2-2-2-4-4-4-4-7-7-7-7-4-4-4-4-2-2-2-2-
E--2-2-2-2-5-5-5-5-2-2-2-2---------2-2-2-2-5-5-5-5-2-2-2-2---------

E----------------------------------
H----------------------------------
G----------------------------------
D--5-5-5-5-5-5-5-5-2-2-2-2-2-2-2-2-
A--5-5-5-5-5-5-5-5-2-2-2-2-2-2-2-2-
E--3-3-3-3-3-3-3-3-0-0-0-0-0-0-0-0-

Bassolla:
G------------------------------------------------------------------
D------------------------------------------------------------------
A----------0-0-0-0---------2-2-2-2---------0-0-0-0---------2-2-2-2-
E--2-2-2-2---------2-2-2-2---------2-2-2-2---------2-2-2-2---------

G----------------------------------
D----------------------------------
A----------------------------------
E--3-3-3-3-3-3-3-3-0-0-0-0-0-0-0-0-


Sitten 2 tahtia E-duuria (Basso ala-E:tä)

E--0--0--0---
H--2--1--0---
G--0--0--1---
D--2--2--2---
A--2--2--2---
E--0--0--0---

Hmm. Soinnut menevät ehkä mielummin Amaj7, Am7, E, eli:

|-0-| |-0-||-0-|
|-2-| |-1-||-0-|
|-1-| |-0-||-1-|
|-2-| |-2-||-2-|
|-0-| |-0-||-2-|
|---| |---||-0-|
-mm

olisiko se basso näin:
G||-------------------|---------------------||---------------------||
D||-------------------|---------------------||*-------------------*||
A||--4----------------|--3------------0--2--||*-------------------*||
E||-------------------|---------------------||---0-----------------||


puen valkeaan
käyn polvilleni
hengitän valoa
hengitän tulta

F#5     A5     F#5 G5
rauhattomuuden merenä
F#5     A5   C5      D5
aaltoat joka suuntaan
F#5       A5    F#5     G5
päättyykö hiljaisuutesi nyt
F#5  A5   C5    D5
vaeltaako henki tänne
F#5  A5  F#5  G5
aa______________
F#5  A5  C5       D5
_________rukoilen sinua
F#5  A5  F#5  G5
Maria
F#5  A5  C5   D5
         anna minulle
F#5  A5  F#5  G5
elämä
F#5  A5  C5       D5
         rukoilen sinua
F#5  A5  F#5  G5
Maria
F#5  A5  C5   D5
         anna minulle
F#5  A5  F#5  G5
elämä
F#5  A5  C5  D5

Kertosäe (soitetaan intron riffillä)

Loppu on toistoa.

Outro:
E | G A |
Maria____     (Tässä on bassolla ja kitaralla joku outo riffi jota en
myöskään saanut selville)


Kitaraosuudet ovat tp:n käsialaa, bassovastaavat itseni.
29. lokakuuta 1999

Outro 
E|---------------------2---0-------|          
B|-----3-------5---------0---0-3-0-|          
G|---4---4---6---6-----------------| ktr 1  (E-sointu kannattaa soittaa
barreena 7. nauhalta)        
D|-5-------7---------2-------------|            
A|---------------------------------|            
E|-----------------0---------------|
 |			           |
E|---------------------------------|
B|---------------------------------|
G|---------------------------------| ktr 2
D|-----0-------0-------4---2---0---|
A|---2---2---4---4---2---2---2---2-|
E|-3-------5-------0---------------|

                    				     *=tahti alkaa tästä kohtaa
G|----------------------------------------h------------------|
D|----------------5----------------------5-7-5---5\----------|
A|---------h--5-------7---7------7---7-----------------------|
E|-5------5-7----------------------------------------3---3---|



Tässä olisi vielä tuon live-version rämyämisoutron bassokuvio,
tai ainakin jotain sinnepäin, jota Yrjänä soittaa tuossa
 videolla parikin kertaa.



G |--9-7-9-7-9-7-9-7-9-7-------------|
D |-----9---9---9---9---9-7-9-11-12--|

(Päivitetty 01.01.2000)


Muokkaa tabulatuuria »