CMX : Tabulatuurit : Auringon kultainen kaupunki

Auringon kultainen kaupunki

Tss jonkinlainen selvitys kappaleesta.

Intro 4x
Am                           G              D                  Asus2
E--------------------------------------------------------------------------
B--------------------------------------------------------------------------
G-12-14-12-14-12---14----------11-12-11-------------------------
D-----------------------------14--------------------12--14--12--14--
A-------------------------------------------------------------------------
E--------------------------------------------------------------------------


Am                        C         G
Auringon ympri vaellamme
G                                    Am
kuu meidn yllmme tanssii
Am                        C           G
Hmrn olennot oppainamme,
G                       Am
neuvonantajat viekkaat

Am                   C   G
Kudomme valosta kuun
G                            Am
alastomuuden niin kirkkaan
Am                    C           G
Hitaina kierivt pivien pyrt
G                              Am
me virtaamme ajassa nin

D          Am
Portilla yn
D           Am
odottaa siell,
D           Am
vielkin siell
C
hn...
C        Am
joka minut omistaa

Kerto:
F#m                    C#m
Ja joka kaupunki auringon on,
        G#m         A
kun sin viivyt viel siell
F#m                  C#m
ja joka piv on ensimminen,
      G#m                   A
kun unen sisss havahdun uuteen

Introa 4x

Am                   C          G
Alla muinaisen auringon
G                                 Am
on veremme puhdasta kultaa
Am                      C         G
Teiden plyss kultaiset naiset
G                        Am
laulunsa itkevt neen


Portilla yn...

Kerto 2x

C-osa 2x instrumentaali
F#m                    C#m         D                       A
E-------------------------------------------------------------------
B-------------------------------------------------------------------
G-------------------------------------------------------------------
D-------4--4--------6--6----6--7--7-6--6-4----4--------------
A-4--4-------4----4-------4-------------------------7--7--------
E------------------------------------------------------------5--7--

F#m               C#m
Marssii virralle syntympuvussa
D                                      A
saatto hautajaisven, ja aina
F#m                C#m
heille sydmen liha on ruokaa
D                               A
vapaus tuoksua ihon huokaa

Kerto 2x
...kun unen sisss havahdun 


minun korvani sanoo, ett laulumelodia mytilee A duuria, eik mollia
tss kohdassa:

D          A
Portilla yn
D           A
odottaa siell,
D           A
vielkin siell
C
hn...
C        A
joka minut omistaa

-yuc

(Päivitetty 12/07/2016)


Muokkaa tabulatuuria »