CMX : Tabulatuurit : Nainen tanssii tangoa

Intro:

 Kitara:

|----7-6--5--------------------7-6--5--------|
|---7----5--------------------7----5---------|
|--6-------------------------6---------------|
|-4-------------------------4----------------|
|--------------------------------------------|
|--------------------------------------------|

 

 Basso:

|----------------------------|
|----4---5----4---5----4---5-|
|----------------------------|
|-0-2-0-3--0-2-0-3--0-2-0-3--|


Kertosäe:

 H5  C5 A5 G5 F#5

 "Sekaan auringonkukkien..."

|-------------------------------------------|
|-------------------------------------------|
|-------------------------------------------|
|-------------------------------------------|
|-3----3-2----321---2---3----3-2----321---2-|
|-1--4------------------1--4----------------|

 "Mitä on ollut ennenkin..."

|--------------------------|
|-5-6-6-5-6-6-5-6-6-5-6-6--|
|--------------------------|
|--------------------------|
|--------------------------|
|--------------------------|

 F5   G#5  B5  H5


|-----------------------------------|
|-----------------------------------|
|---------------------------------6-|
|-----------------------------------|
|-4-5---4-5---4---4-5---4-5---4---4-|
|----5-4---5-4-------5-4---5-4------|

|---------------------------------|
|-------------------------------5-|
|-7---6-7---6---6-7---6-7---6---6-|
|--7-6---7-6-------7-6---7-6------|
|-5---4-5---4---4-5---4-5---4---4-|
|--5-4---5-4-------5-4---5-4------|

|---------------------------------|
|-6---5-6---5---5-6---5-6---5-----|
|-75-46-75-46---6-75-46-75-46-----|
|--7-6---7-6-------7-6---7-6------|
|-5---4-5---4---4-5---4-5---4-----|
|--5-4---5-4-------5-4---5-4------|

|-----------------------------------|
|-5-6---5-6---5---5-6---5-6---5-----|
|-6-75-46-75-46---6-75-46-75-46-----|
|----7-6---7-6-------7-6---7-6------|
|-4-5---4-5---4---4-5---4-5---4-----|
|----5-4---5-4-------5-4---5-4------|

Tarvitsee olla aika fakiiri selvittääkseen äsköisen.

Filli:

|----------------------------------|
|-----------------5-6---3-3--------|
|-42--------------4-5---2-2----5-5-|
|---54-5-42-------------------04-4-|
|----------53-0--------------------|
|----------------------------------|

-mm



(Päivitetty 27.11.1999)


Muokkaa tabulatuuria »