CMX : Tabulatuurit : Totenmann

INTRO (=Kertsi)

Em  -   Em   -   Am    -   C    D

Ainakin yksi toinen kitara soittaa jotain stemmaa (kvinttisoinnuilla?).
Ehkä jotensakin näin:

E5    -   E5  H5   A5  -  C5   -   G5   F#5


Välike:

          C#dim                             C(vaikka maj7)               
Em
E--------------------------------------------------------------------------0-------
H--------------------------------------------------------------------------0-------
G-----------0---------------0-----------------0---------------0------------0-------
D-------2-------2---4-----------2---------2-------2---4-----------2--------2-------
A---4-------------------4-------------3-------------------3----------------2-------
 Anna soida 1 tai
E--------------------------------------------------------------------------0-------
 2 tahtia riippuen kohdasta


Säkeistö:

Em

Jälkeen päivän ihmeellisen 

Em

katson sinun kasvojasi 

Am          D

olet minulle maailma 

Am          D  D/Eb  *

olet minulle elämän vesi 

*
E----------------------------------------
H----------------------------------------
G-----------0----------------0-----------
D-------4-------4--------4-------4-------
A---5---------------6--------------------
E----------------------------------------

(Muu näppäily on aika helppo napata Em-soinnusta.)

Ja samat toistuu.

Väliosassa tapahtuu niin paljon asioita päällekkäin, etten tähän
hätään keksinyt mitään kauhean tarkkaa siihen. 
Sävel vaihtunee A-duuriin ja jotain operoidaan A-C-D-E -akselilla.

~Ei ehkä virheetön, mutta alku kuitenkin.~

(Päivitetty 21.11.2010)


Muokkaa tabulatuuria »