CMX : Tabulatuurit : Taivaan lapset

Pääriffi:

||-----15--0------------------||   
||---13--13-13--15-15-12-0----|| 
||-14---------14--0--0----12--||    
||----------------------------||
||----------------------------||
||----------------------------||

Pääriffin tausta   Ennen teemaa
E|----------------|------------------|
B|-1---2---0------|------------------|
G|-2---0---0------|------------------|
D|-2---0---0------|------------------|
A|(0)-(2)-(2)-----|--4---4---4---4---|
E|----(3)-(3)-----|--2---2---2---2---|

"Nelisilmä"              "Niin ovat laulut meiltä menneet"
E|-----------------------|--------------|
B|-----------------------|--------------|
G|-----------------------|-2---2---1----|
D|-----------------------|-2---3---2----|
A|-------2-...--5-...----|-0---3---2----|
E|-2-...-----------3-...-|-----1---0----|

Teema
E|------------------------------------------------------------|
B|------------------------------------------------------------|
G|-4---4---7-6-4-4-------------4---4---7-6-4-s9---7-6-5-------|
D|-------------------7-6-4--------------------------------5-5-|
A|-------------------------7-7--------------------------------|
E|------------------------------------------------------------|

"Äidinkatseen ääriviiva"
E|--------------------------------|
B|-12-----10-----10-----8-----10--|
G|-11-...-9---9------9-----9------|
D|-9------7-----------------------|
A|--------------------------------|
E|--------------------------------|

Teema2
E|-----------------------------------------------------------|
B|-----------------------------------------------------------|
G|-----------------------------------------------------------|
D|(4)-(4)-(2)---(4)-(4)-(2)---(4)-(4)-(2)----7---7---9---9---|
A|-2---2---0-----2---2---0-----2---2---0-----5---5---7---7---|
E|-----------2-------------2-2-----------2-------------------|

Loppu
E|-----------------------|
B|-2---2---0-------------|
G|-0---0---0--2--0--2b---|
D|-0---0---0-------------|
A|-----------------------|
E|-----------------------|



(Päivitetty 19.11.1999)


Muokkaa tabulatuuria »